Song name
# A B C D E F G H I J K L M N O P Q R S T U V W X Y Z

Mastodon - Wolf Is Loose tab

Help us improve GuitareTab! Take a short survey!
this is pretty easy, i think it sounds alrite.

h-hammer
p-pull off
/- slide to note
*-pinch harmonic
v-vibrato


drum intro

crazy pick slide / / / // / / / / / //

e|--------------------------------------------------------------------------|
B|--------------------------------------------------------------------------|
G|--------------------------------------------------------------------------|
D|-77--3-3----77--3-3----77-10-10---77-10-10--------------------------------|
A|-55--1-1----55--1-1----55--8-8----55--8-8---------------------------------|
D|--------------------------------------------------------------------------|

e|--------------------------------------------------------------------------|
B|--------------------------------------------------------------------------|
G|--------------------------------------------------------------------------|
D|-77--3-3----77--3-3----77-10-10---77-10-10--------------------------------|
A|-55--1-1----55--1-1----55--8-8----55--8-8---------------------------------|
D|--------------------------------------------------------------------------|


e|------------------------------|
B|------------------------------|
G|--9-10-9---------9-7--10------|
D|--x-x--x---x2----x-x--x---x2--|
A|--7-8--7---------7-5--8-------|
D|------------------------------|

e|------------------------------|
B|------------------------------|
G|--9-10-9---------9-7--10------|
D|--x-x--x---x2----x-x--x---x2--|
A|--7-8--7---------7-5--8-------|
D|------------------------------|

repeat everything up to hereagain

|-----------------------------------|
B|----------------------------------|
G|----------------------------------|
D|--7-8-7-10-8-7-8-7-5-3-0----x4----|
A|--5-8-7-10-8-7-8-7-5-3-0----------|
D|----8-7-10-8-7-8-7-5-3-0----------|


e|----------------------------------------------------------|
B|----------------------------------------------------------|
G|----------------------------------------------------------|
D|--7-5-6--7-5-6--7-5------------7-5-6--7-5-6--7-5----------|
A|--5-3-4--5-3-4--5-3------------5-3-4--5-3-4--5-3----------|
D|--------------------6-5-3-0----------------------6-5-3-0--|


e|----------------------------------------------------------|
B|----------------------------------------------------------|
G|----------------------------------------------------------|
D|-----2222------3333------5555-------7777------------------|
A|-3-5-------3-5-------3-5-------3-5------------------------|
D|----------------------------------------------------------|


e|----------------------------------------------------------|
B|----------------------------------------------------------|
G|----------------------------------------------------------|
D|--7-5-6--7-5-6--7-5------------7-5-6--7-5-6--7-5----------|
A|--5-3-4--5-3-4--5-3------------5-3-4--5-3-4--5-3----------|
D|--------------------6-5-3-0----------------------6-5-3-0--|


e|----------------------------------------------------------|
B|----------------------------------------------------------|
G|----------------------------------------------------------|
D|-----2222------3333------5555-------7777------------------|
A|-3-5-------3-5-------3-5-------3-5------------------------|
D|----------------------------------------------------------|


e|-------------------------------------------------------------|
B|-------------------------------------------------------------|
G|-------------------------------------------------------------|
D|------------------------------------------------999999----x4-|
A|----7--------------7--------------7-------------777777-------|
D|--0---7h8p7/0----0---7h8p7/0----0---7h8p7/0------------------|


e|----------------------------------------------------------|
B|----------------------------------------------------------|
G|----------------------------------------------------------|
D|--7-5-6--7-5-6--7-5------------7-5-6--7-5-6--7-5----------|
A|--5-3-4--5-3-4--5-3------------5-3-4--5-3-4--5-3----------|
D|--------------------6-5-3-0----------------------6-5-3-0--|


e|------------------------------------------------------------|
B|------------------------------------------------------------|
G|------------------------------------------------------------|
D|-----2222------3333------5555-------7777--9999--12-12-12-14-|
A|-3-5-------3-5-------3-5-------3-5--------------------------|
D|------------------------------------------------------------|


|-----------------------------------------------------------------|
|-----------------------------------------------------------------|
|---/7--5----------------------------/8-7-5-----------------------|
|----------8-7-5----------------------------8-7-5---------------x3|
|----------------8-6-5-3-1------------------------8-6-5-6-5-------|
|--------------------------5-3-1-0--------------------------------|
|-----------------------------------------------------------------|

|-----------------------------------------------------|
|---*-------------------------------------------------|
|---7--5----------------------------------------------|
|----------8-7-5--------------------------------------|
|----------------8-6-5-3-1--------------3--5----------|
|--------------------------5-3-1-0------1--3----------|
|-----------------------------------------------------|


e|--------------------------------------------------------------------------|
B|--------------------------------------------------------------------------|
G|--------------------------------------------------------------------------|
D|-77777-77777--33333-33333--77777-77777--1010101010-1010101010-------------|
A|-55555-55555--11111-11111--55555-55555--88888------88888------------------|
D|--------------------------------------------------------------------------|


e|--------------------------------------------------------------------------|
B|--------------------------------------------------------------------------|
G|-----------------------------/7-5------------/8-7-5-----------------------|
D|-77777-77777--33333-33333---------8-7-5--------------8-7-5----------------|
A|-55555-55555--11111-11111--------------8-7v-----------------8v------------|
D|--------------------------------------------------------------------------|


e|--------------------------------------------------------------------------|
B|--------------------------------------------------------------------------|
G|---/7-5-------------------------------------------------------------------|
D|--------8-7-5------------------x2-----------------------------------------|
A|-------------8-7v---------------------------------------------------------|
D|--------------------------------------------------------------------------|

all of the rest is just repeating or really easy to work out
Related for Wolf Is Loose tab