Song name
# A B C D E F G H I J K L M N O P Q R S T U V W X Y Z

Mastodon - Megalodon tab

Title: Megalodon
Artist: Mastodon
Album: Leviathan (c) Relapse Records 2004

X  scratch
.  palm mute
h  hammer-on
p  pull-off
/  slide up
\  slide down
~  vibrato
AH artificial (pinch) harmonic
() ghost note

~~~~~~~~~~~~~~~~~~~~~~~~~~~~~~~~~~~~~~~~~~~~~~~~~~~~~~~~~~~~~~~~~~~~~~~~~~~~

Tuning: DGCFAd (one whole step down)

INTRO

Guitars I and IV
  Ebadd11/Ab     Gsus4/C               G/C           Eb/Ab
d---------------------------------------------------------------------|
A---------------------------------------------------------------------|
F---------0---------------0------0------------0-------------0-----0---|
C-----6-----6--------10----10------10-----8-----8-------4-----4-----4-|
G---6---6-----6---10---10-----10--------10-10----10---6---6-----6-----|
D-4-------------8---------------------9-------------5-----------------|

Guitar I
  F11
d-----------------------0h2-----------------------------0h2-----|
A-----------0-----0---------4h5-------------0-----0---------5p4-|
F-------0h3---3h4---4h6-----------------0h3---3h4---4h6---------|
C---0h4-----------------------------0h4-------------------------|
G---------------------------------------------------------------|
D-2-------------------------------2-----------------------------|

  N.C.
d------------------------------------------------------|
A------------------------------------------------------|
F-6p4-4-4~~-4-2p0-0---0--0---0---0---0---0---0---0---0-|
C-----------------------4--2---------------------------|
G------------------------------3---2-------------------|
D--------------------------------------3---2---1---0---|

VERSE
Guitar I
      Eb5                                            N.C.
d-----------------------------------------------------------------|
A-----------------------------------------------------------------|
F---------------------------------------------------------0---0---|
C-----8---8-----8---8-----8-----8---8-----8-----8-------0---6-----|
G-----6---6-----6---6-----6-----6---6-----6-----6---0h6---------6-|
D-X-X---X---X-X---X---X-X---X-X---X---X-X---X-X---X---------------|

      Eb5           F5                               N.C.
d------------------------------------------------------------------|
A------------------------------------------------------------------|
F------------------------------------------------------------------|
C-----8---8-----8---10-----8-----8---8-----8-----8---------6-------|
G-----6---6-----6---8------6-----6---6-----6-----6---6-7-9---9-7-9-|
D-X-X---X---X-X---X----X-X---X-X---X---X-X---X-X---X---------------|

Guitar III
      Eb5           F5                               N.C.
d---------------------------------------------------------------------|
A---------------------------------------------------------------------|
F-----------------------------------------------------------8---------|
C-----8---8-----8---10-----8-----8---8-----8-----8---8-9-11---11-9-11-|
G-----6---6-----6---8------6-----6---6-----6-----6--------------------|
D-X-X---X---X-X---X----X-X---X-X---X---X-X---X-X---X------------------|

      Eb5                                           N.C
d-----------------------------------------------------------------|
A-----------------------------------------------------------------|
F-----------------------------------------------------------------|
C-----8---8-----8---8-----8-----8---8-----8-----8-----------------|
G-----6---6-----6---6-----6-----6---6-----6-----6---------4-6-----|
D-X-X---X---X-X---X---X-X---X-X---X---X-X---X-X---X-4-5-7-----5-7-|

      Eb5
d---------------------------------------------------|
A---------------------------------------------------|
F---------------------------------------------------|
C-----8---8-----8---8-----8-----8---8-----8-----8---|
G-----6---6-----6---6-----6-----6---6-----6-----6---|
D-X-X---X---X-X---X---X-X---X-X---X---X-X---X-X---X-|

GUITAR SOLO
Guitars I & II (guitar II = nashville-tuned elec. Standard w/str. 3-6 tuned one octave higher)

d---------------------0------------------------------0------0-----0---0---0----------|
A-----------------0-------------12----12---------------------------------------------|
F-------0-----0h6---9---9-11h13----13----13p11-9-(9)---------------------------------|
C---------0h6------------------------------------------9h11---7\9---6---6---6/4-2----|(2)
G---0h6------------------------------------------------------------------------------|
D-X----------------------------------------------------------------------------------|

INTERLUDE
Guitars I & III
  N.C.(Em)
d-------------------------------------------------------------------------------|
A-------------------------------------------------------------------------------|
F-------------------------------------------------------------------------------|
C-------------------------------------------------------------------------------|
G-------------------------------------------------------------------------------|
D-12h13-0-12h13-0-0-0-0-0-0-0-0-0-0-0-12h13-0-12h13-0-12h13-0-12h13-0-16-0-13-0-|
        .       . . . . . . . . . . .       .       .       .       .    .    .

d--------------------------------------------------------------------------------|
A--------------------------------------------------------------------------------|
F--------------------------------------------------------------------------------|
C--------------------------------------------------------------------------------|
G--------------------------------------------------------------------------------|
D-12h13-0-12h13-0-0-0-0-0-0-0-0-0-0-0-12h13-0-12h13-0-12h13-0-12h13-0-17-0-13-0--|
        .       . . . . . . . . . . .       .       .       .       .    .    .

Guitar I
d-------------------------------------------------------------------------|
A-------------------------------------------------------------------------|
F-------------------------------------------------------------------------|
C---------12h14-----------------------12h14---12h14-----------------------|
G-------------------------------------------------------------------------|
D-12h13-0-------0-0-0-0-0-0-0-0-0-0-0-------0-------0-0-0-0-0-0-0-0-0-0-0-|
        .       . . . . . . . . . . .       .       . . . . . . . . . . .

Guitar III
d-------------------------------------------------------------------------|
A-------------------------------------------------------------------------|
F-------------------------------------------------------------------------|
C-------------------------------------------------------------------------|
G---------12h14-----------------------12h14---12h14-----------------------|
D-12h13-0-------0-0-0-0-0-0-0-0-0-0-0-------0-------0-0-0-0-0-0-0-0-0-0-0-|
        .       . . . . . . . . . . .       .       . . . . . . . . . . .

Guitar I
d----------------------------------------------------------------------------------|
A----------------------------------------------------------------------------------|
F----------------------------------------------------------------------------------|
C-12h14---12h14---12h14---12h14---12h14----12h14---12h14---12h14---12h14---12h14---|
G----------------------------------------------------------------------------------|
D-------0-------0-------0-------0------0-0-------0-------0-------0-------0-------0-|
        .       .       .       .      . .       .       .       .       .       .

Guitar III
d-----------------------------------------------------------------------------------|
A-----------------------------------------------------------------------------------|
F-----------------------------------------------------------------------------------|
C-----------------------------------------------------------------------------------|
G-12h14---12h14---12h14---12h14---12h14----12h14---12h14---12h14---12h14---12h14----|
D--------0-------0-------0-------0------0-0-------0-------0-------0-------0-------0-|
         .       .       .       .      . .       .       .       .       .       .

Guitars I & III
   G5  D5  F5  Eb5 C5  d5
d-------------------------|
A-------------------------|
F--12---------------------|
C--12--12--15--13--10--12-|
G--10--12--15--13--10--12-|
D------10--13--11--8---10-|

BRIDGE
Guitars I and III
  N.C.
d---------------------------------------------------------|
A---------------------------------------------------------|
F---------------------------------------------------------|
C---------2-2-----4-4-------------2-2---------4-4---------|
G---------------------------------------------------------|
D-0-0-2-2-----0-0-----2-2-0-0-2-2-----0-0-3-3-----2-2-0-0-|
  . . . . . . . . . . . . . . . . . . . . . . . . . . . .

d-------------------------------------------------------------------------|
A-------------------------------------------------------------------------|
F-------------------------------------------------------------------------|
C-----2-2-----4-4-------------------------4-4-----------------------------|(2)(2)(3)(3)(5)(5)(3)(3)
G-----------------------------5-5-----2-2---------4--4--5--5--7--7--5--5--|
D-2-2-----0-0-----2-2-0-0-2-2-----3-3---------2-2-------------------------|
  . . . . . . . . . . . . . .

INTERLUDE
Guitars I & III
  N.C
d------------------------------------------------------------------|
A------------------------------------------------------------------|
F------------------------------------------------------------------|
C-----2---4-------2-----4-------2---4-------------4~-----2-4-5-7-5-|
G-------------------------------------------5---2------4-----------|
D-0-2---4---2-0-2---0-3---2-0-2---0---2-0-2--3-------2-------------|
                                                  AH
  N.C.(Em)
d-------------------------------------------------------------|
A-------------------------------------------------------------|
F-------------------------------------------------------------|
C---------------9h10p9~~~~~~~~-9h10p9p7-9-/9-7----------------|
G---7h8p7~~~~----------------------------------10~~~~9~~~~----|
D-0-----------0--------------------------------------------10-|

d---------------------------------------------------------------|
A---------------------------------------------------------------|
F---------------------------------------------------------------|
C-----------------9h10p9~~~~~~~~-9h10p9p7-9-/9-7----------------|
G-7---7h8p8~~~~----------------------------------10~~~~9~~~~----|
D---0-----------0--------------------------------------------10-|

Guitar I

d---------------------------------------------------------------|
A---------------------------------------------------------------|
F---------------------------------------------------------------|
C-----------------9h10p9~~~~~~~~-9h10p9p7-9-/9-7----------------|
G-7---7h8p8~~~~----------------------------------10~~~~9~~~~----|
D---0-----------0--------------------------------------------10-|

Guitar III
d------------------------------------------------------------|
A------------------------------------------------------------|
F-----------------8h9p8~~~~~~~~-8h9p8p6-8--------------------|
C-----6h7h6~~~~----------------------------------------------|
G-7---------------------------------------/9-7-------------0-|
D---0-----------0------------------------------10~~~~9~~~~---|

BRIDGE

INTERLUDE 2

GUITAR SOLO
Guitar I
  N.C.(Em)
d-------------------------------------------------------------------|
A-------------------------------------------------------------------|
F-------------------------------------------------------------------|
C---------------4-4h5p4---4---------------------5h7h9p7p5---7---5h7-|
G---5-(5)-7-(7)---------7---7-5h7---5-(5)-7-(7)-----------7---7-----|
D-0-------------------------------0---------------------------------|

Guitar III
    D     E                         D     E
d------------------------------------------------------------------------|
A---7-(7)-9-(9)---7h8p7---7---------7-(7)-9-(9)-8h10h12p10p8---10---8h10-|
F---7-(7)-9-(9)---------9---9p7-----7-(7)-9-(9)--------------9----9------|
C-------------------------------9----------------------------------------|
G------------------------------------------------------------------------|
D-0-------------------------------0--------------------------------------|

OUTRO
  B5 F5  D5 A5 B5 E5
d-------------------------|
A-------------------------|
F----10--7--------9-------|(9)\
C-9--10--7--7--9--9-------|(9)\
G-9--8---5--7--9--7-------|(7)\
D-7---------5--7----------|
Tap to rate this tab
 
# A B C D E F G H I J K L M N O P Q R S T U V W X Y Z