Song name
# A B C D E F G H I J K L M N O P Q R S T U V W X Y Z

Mastodon - Hunters Of The Sky tab

Hunters Of The Sky - Mastodon - Blood Mountain (2006)

[Intro][x4]
D--------------------------------|
A--------------------------------|
F--------------------------------|
C---9~-----10~------12~----10~---|
G---9~-----10~------12~----10~---|
D---7~-----8~-------10~----8~----|

[Verse][x6]
F------------------------------------|
A------------------------------------| 
D------------------------------------|
G---9-9-9--9s12s9---9-9-9s10--9s10---|
C---9-9-9--9s12s9---9-9-9s10--9s10---|
D---7-7-7--7s10s7---7-7-7s8---7s8----|

[Pre Chorus][x1]
D--------------------------------------------------|
A--------------------------------------------------|
F---11---------9-----------11------14--13--11--9---|
C---11--10--9--9--10--10---11--10--14--13--11--9---|   x2
G---9---10--9--7--10--10---9---10--12--11--9---7---|
D-------8---7-----8---8--------8-------------------|

D------------------|
A------------------|
F---11-------------|
C---11---11---12---|
G---9----11---12---|
D--------9----10---|

[Verse][x4]

[Chorus][x1]
D-----------------------------------------------------|
A-----------------------------------------------------|
F---12-12--------------------12-12--------------------|
C---12-12---11-11-11s14-15---12-12---11-11-11s14-15---|
G---10-10---11-11-11s14-15---10-10---11-11-11s14-15---|
D-----------9--9---9s12-13-----------9--9---9s12-13---|

D--------------------------|
A--------------------------|
F---12-12------------------|
C---12-12---11---14---11---|
G---10-10---11---14---11---|
D-----------9----12---9----|

D-----------------------------------------------------|
A-----------------------------------------------------|
F---12-12--------------------12-12--------------------|
C---12-12---11-11-11s14-15---12-12---11-11-11s14-15---|
G---10-10---11-11-11s14-15---10-10---11-11-11s14-15---|
D-----------9--9---9s12-13-----------9--9---9s12-13---|

D--------------------------------------|
A--------------------------------------|
F---12-12------------------------------|
C---12-12---11---14---11---------------|
G---10-10---11---14---11---------------|
D-----------9----12---9----7--0--8p7---|

D-------------------------|
A-------------------------|
F-------------------------|
C---14-11-----------------|
G---14-11-----------------|
D---12--9--0--7--0--8p7---|

[Interlude][x1]
D------------------------------------------------------------------------|
A------------------------------------------------------------------------|
F------------------------------------------------------------------------|
C------------------------------------------------------------------------|
G------------------------------------------------------------------------|
D---0-0-0-7-0-8-7-5--0-0-0-7-0-8-7-5--0-0-0-7-0-8-7-5--0-0-0-7-0-8-7-5---|

D------------------------------------------|
A------------------------------------------|
F------------------------------------------|
C------------------------------------------|
G------------------------------------------|
D-0-0-0-10-0-11-10-8--0-0-0-10-0-11-10-8---|

D------------------------------------------|
A------------------------------------------|
F------------------------------------------|
C------------------------------------------|
G------------------------------------------|
D-0-0-0-10-0-11-10-8--0-0-0-10-0-11-10-8---|

D----------------------------------------------|
A----------------------------------------------|
F----------------------------------------------|
C----------------------------------------------|
G----------------------------------------------|
D---0-0-0-12-0-13-12-10--0-0-0-12-0-13-12-10---|

D------------------------------------------|
A------------------------------------------|
F------------------------------------------|
C------------------------------------------|
G------------------------------------------|
D-0-0-0-10-0-11-10-8--0-0-0-10-0-11-10-8---|

D------------------------------------------------------------------------|
A------------------------------------------------------------------------|
F------------------------------------------------------------------------|
C------------------------------------------------------------------------|
G------------------------------------------------------------------------|
D---0-0-0-7-0-8-7-5--0-0-0-7-0-8-7-5--0-0-0-7-0-8-7-5--0-0-0-7-0-8-7-5---|

D---------------------------------------------------------------|
A---------------------------------------------------------------|
F---------------------------------------------------------------|
C---9~-----10~-----12~-----10~-----9~-----10~-----12~-----10~---|
G---9~-----10~-----12~-----10~-----9~-----10~-----12~-----10~---|
D---7~------8~-----10~------8~-----7~------8~-----10~------8~---|

D------------------------------------------------------------------------|
A------------------------------------------------------------------------|
F------------------------------------------------------------------------|
C------------------------------------------------------------------------|
G------------------------------------------------------------------------|
D---0-0-0-7-0-8-7-5--0-0-0-7-0-8-7-5--0-0-0-7-0-8-7-5--0-0-0-7-0-8-7-5---|

D------------------------------------------|
A------------------------------------------|
F------------------------------------------|
C------------------------------------------|
G------------------------------------------|
D-0-0-0-10-0-11-10-8--0-0-0-10-0-11-10-8---|

D------------------------------------------|
A------------------------------------------|
F------------------------------------------|
C------------------------------------------|
G------------------------------------------|
D-0-0-0-10-0-11-10-8--0-0-0-10-0-11-10-8---|

D----------------------------------------------|
A----------------------------------------------|
F----------------------------------------------|
C----------------------------------------------|
G----------------------------------------------|
D---0-0-0-12-0-13-12-10--0-0-0-12-0-13-12-10---|

D------------------------------------------|
A------------------------------------------|
F------------------------------------------|
C------------------------------------------|
G------------------------------------------|
D-0-0-0-10-0-11-10-8--0-0-0-10-0-11-10-8---|

[Chorus][x1]

[Verse][x4]

[Outro][Fading]
D-----------------------|
A-----------------------|
F------------------13---|
C---9~---10---13---13---|
G---9~---10---13---11---|
D---7~---8----11--------|
Tap to rate this tab
# A B C D E F G H I J K L M N O P Q R S T U V W X Y Z