Guitaretab - guitar tabs
Song name
# A B C D E F G H I J K L M N O P Q R S T U V W X Y Z

Mastodon - Siberian Divide tab

----------------------------------------------------------------------------
			  Siberian Divide - Mastodon
----------------------------------------------------------------------------
Tabbed by: DeathTribble
Email:

Tuning:DGCFAD

Intro/First Verse
D|---------0---------0---3-------| 
A|-----4-----4-----0---0----0----|
F|-4h5---5-----5-4------------4--|
C|-------------------------------|
G|-------------------------------|
D|-------------------------------|

D|-----0----8-------------0----------|
A|---0---0----10--------9---9--------|
F|-9-------------9-9/10-------12-10--|
C|-----------------------------------|
G|-----------------------------------|
D|-----------------------------------|

      Fill                         Chorus
D|----------------------------------------------------|
A|----------------------------------------------------|
F|-4--------------------------------------------------|
C|-2-7-5-4-------------9--------------9---------------|
G|---5-3-2-5-3-2-------7---8---10-8---7---8---10-8----|
D|---------3-1-0---------0-6-0-8--6-0---0-6-0-8--6-0--|

         Chorus (Cont.)
D|---------------------------------------------|
A|---------------------------------------------|
F|------------------------------4--------------|
C|------------------------------2-7-5-4--------|
G|-2---3---5-3-----3---5-3--------5-3-2-5-3-2--|
D|-0-0-1-0-3-1-0-0-1-0-3-1--------------3-1-0--|

 Second Verse
D|-----0---7---------0---7---------0---7---------0---7------|
A|---8---8---8-----8---8---8-----8---8---8-----8---8---8----|
F|-9-----------9-9-----------9-9-----------9-9-----------9--|
C|----------------------------------------------------------|
G|----------------------------------------------------------|
D|----------------------------------------------------------|

D|-----0---2---------0---2---------0---2---------0---2------|
A|---0---0---3-----0---0---3-----0---0---3-----0---0---3----|
F|-4-----------4-4-----------4-4-----------4-4-----------4--|
C|----------------------------------------------------------|
G|----------------------------------------------------------|
D|----------------------------------------------------------|

D|-----0---7---------0---7---------0---7---------0---7------|
A|---8---8---8-----8---8---8-----8---8---8-----8---8---8----|
F|-9-----------9-9-----------9-9-----------9-9-----------9--|
C|----------------------------------------------------------|
G|----------------------------------------------------------|
D|----------------------------------------------------------|

D|-------12----14-------------12----14-------------12----14-------------12-|
A|----12----12----15-------12----12----15-------12----12----15-------12----|
F|-16----------------16-16----------------16-16----------------16-16-------|
C|-------------------------------------------------------------------------|
G|-------------------------------------------------------------------------|
D|-------------------------------------------------------------------------|

Bridge
D|--------------------------------------------------------------|
A|--------------------------------------------------------------|
F|--------------------------------------------------------------|
C|--------------------------------------------------------------|
G|-5---7---5-----5---7---5-----5---7---5-----5---7---5----------|
D|---0---0---4-7---0---0---4-7---0---0---4-7---0---0---4-5-7-8--|
[ Tab from: http://www.guitaretab.com/m/mastodon/84529.html ]
D|------------------------------------------------------------|
A|------------------------------------------------------------|
F|------------------------------------------------------------|
C|-----6-------------6-------------6-------------6------------|
G|-5-------5-6---5-------5-6---5-------5-6---5-------------5--|
D|---0---0-----0---0---0-----0---0---0-----0---0---0-5-7-8----|

D|-------------------------------------------------------------------|
A|-------------------------------------------------------------------|
F|-------------------------------------------------------------------|
C|-------9--------------9---------------9--------------------7-------|
G|-----7-------7-9----7-------7-9-----7-------7-9-----7-9-10---10-9--|
D|-7h8-----7h8-----7h8----7h8-----7h8-----7h8-----7h8----------------|

 First End
D|-------------------|
A|-------------------|
F|-------------------|
C|-------------------|
G|-----7-9-10-9-7----|
D|-7h8------------8--|

 Second Ending
D|-----------------------------------------------------------------------|
A|-----------------------------------------------------------------------|
F|-----------------------------------------------------------------------|
C|-----------------------------7-----------------------------------------|
G|-----7-9-10-9-7-------7-9-10---10-9-----7-9-10-9-7------------7-5-3-2--|
D|-7h8------------8-7h8---------------7h8------------10-8-7-5-3----------|

D|----------|
A|----------|
F|----------|
C|----------|
G|----------|
D|-5-3-1-0--|

D|-----------1--------------0--------------1-------------|
A|-----------1--------------0--------------1-------------|
F|-------------------------------------------------------|
C|-7-\-\-\-3------7-\-\-\-3------7-\-\-\-3------3-3-2-2--|
G|-7-\-\-\-3------7-\-\-\-3------7-\-\-\-3------3-3-2-2--|
D|-5-\-\-\-1------5-\-\-\-1------5-\-\-\-1------1-1-0-0--|

D|----------------------------------------------------------|
A|----------------------------------------------------------|
F|----------------------------------------------------------|
C|-----------5-3-----------5-------------6-------------6----|
G|---5---7---------5---7-----6---5---7-----7---5---7-----7--|
D|-0---0---0-----0---0---0-----0---0---0-----0---0---0------|

D|-----------------------------------------------------------------------|
A|-----------------------------------------------------------------------|
F|-----------------------------------------------------------------------|
C|-----------------------------------------------------------------------|
G|-----------------------------------------------------------------------|
D|-13-0-13-0-13-0-13-0-10-10-0-10-0-0-13-0-13-12-0-12-0-0-0-0-15-0-0-15--|

D|----------|
A|----------|
F|----------|
C|----------|
G|----------|
D|-0-0-0-0--|

D|-----------------------------------------------------------------------|
A|-----------------------------------------------------------------------|
F|-----------------------------------------------------------------------|
C|-----------------------------------------------------------------------|
G|-15---15---15---15---12-12---12-----15---15-14---14---------13-----13--|
D|-13-0-13-0-13-0-13-0-10-10-0-10-0-0-13-0-13-12-0-12-0-0-0-0-15-0-0-15--|

D|----------|
A|----------|
F|----------|
C|----------|
G|----------|
D|-0-0-0-0--|

D|----------------------------------------|
A|----------------------------------------|
F|----------------------------------------|
C|-10/12\10-9---------10/12\10-9----------|
G|-8-/10\8--7---------8-/10\8--7----------|
D|-8-/10\8--7-0-0-0-0-8-/10\8--7-0-0-0-0--|

D|-----------1--------------0--------------1-------------|
A|-----------1--------------0--------------1-------------|
F|-------------------------------------------------------|
C|-7-\-\-\-3------7-\-\-\-3------7-\-\-\-3------3-3-2-2--|
G|-7-\-\-\-3------7-\-\-\-3------7-\-\-\-3------3-3-2-2--|
D|-5-\-\-\-1------5-\-\-\-1------5-\-\-\-1------1-1-0-0--|

| /  slide up
| \  slide down
| h  hammer-on
| p  pull-off
| ~  vibrato
| +  harmonic
| x  Mute note
============================================================================

Related for Siberian Divide tab
Advertisement will be closed in 10 seconds