Mat Graham - Song Of Storms tab

Tuning: Drop D
Tabbed by llamasdough
Song by Mat Graham

Intro
1st Guitar
e|---------------------------------------|
B|---------------------------------------|
G|---------------------------------------|
D|---------------------------------------|
A|--0-2-3---0-2-3---0-2-3---0-2-3--------|
E|--0-2-3---0-2-3---0-2-3---0-2-3--------|

2nd Guitar
e|---------------------------------------|
B|---------------------------------------|
G|---------------------------------------|
D|--3-5-7-5-3-5-7-5-3-5-7-5-3-5-7-5------|
A|---------------------------------------|
E|---------------------------------------|



e|-----------------12--13p12-13p12-------|
B|------15-----15-----------------13-----|
G|----14-----14---------------------14---|
D|--12-----12----------------------------|
A|---------------------------------------|
D|---------------------------------------|

e|---------------------------------------|
B|---10---------10~--10------------------|
G|--------10h12-----------10-12----------|
D|-----12--------------12-------10~------|
A|---------------------------------------|
D|---------------------------------------|

e|-----------------12--13p12-13p12-------|
B|------15-----15-----------------13-----|
G|----14-----14---------------------14---|
D|--12-----12----------------------------|
A|---------------------------------------|
D|---------------------------------------|

e|---------------------------------------|
B|---10---------10~--10------------------|
G|--------10h12--------------------------|
D|-----12--------------12~~--------------|
A|---------------------------------------|
D|---------------------------------------|


e|-----------------12--13p12-13p12-------|
B|------15-----15-----------------13-----|
G|----14-----14---------------------14---|
D|--12-----12----------------------------|
A|---------------------------------------|
D|---------------------------------------|

e|---------------------------------------|
B|---10---------10~--10------------------|
G|--------10h12-----------10-12----------|
D|-----12--------------12-------10~------|
A|---------------------------------------|
D|---------------------------------------|

e|-----------------12--13p12-13p12-------|
B|------15-----15-----------------13-----|
G|----14-----14---------------------14---|
D|--12-----12----------------------------|
A|---------------------------------------|
D|---------------------------------------|

e|---------------------------------------|
B|---10---------10~--10------------------|
G|--------10h12--------------------------|
D|-----12--------------12~~--------------|
A|---------------------------------------|
D|---------------------------------------|
Tap to rate this tab
 
# A B C D E F G H I J K L M N O P Q R S T U V W X Y Z