Song name
# A B C D E F G H I J K L M N O P Q R S T U V W X Y Z

Mat Kearney - Nothing Left To Lose tab

Strumming pattern not included.  Standard Tuning.  The A in the chorus and bridge can be 
as a bar chord with the e and B open (I think it sounds better).  Be careful of the A 
the chorus; it skips the last beat before changing chords to the E.


Verse:

  C#m     E    Asus2    E
e|-0------0------0------0--|
B|-0------0------0------0--|
G|-6------1------2------1--|
D|-6------2------2------2--|    X2
A|-4------2------0------2--|
E|--------0-------------0--|

Pre Chorus:

  F#m    Asus2
e|-0------0--------------|
B|-0------0--------------|
G|-2------2--------------|
D|-4------2--------------|    X2
A|-4------0--------------|
E|-----------------------|

Chorus:

   E     F#m     A      E
e|-0------0------0------0-|
B|-0------0------2------0-|
G|-1------2------2------1-|
D|-2------4------2------2-|    X2
A|-2------4------0------2-|
E|-0--------------------0-|

  F#m     E
e|-0------0--------------|
B|-0------0--------------|
G|-2------1--------------|
D|-4------2--------------|    X2
A|-4------2--------------|
E|--------0--------------|


Verse:

  C#m     E    Asus2    E
e|-0------0------0------0--|
B|-0------0------0------0--|
G|-6------1------2------1--|
D|-6------2------2------2--|    X2
A|-4------2------0------2--|
E|--------0-------------0--|


Pre Chorus:

  F#m    Asus2
e|-0------0--------------|
B|-0------0--------------|
G|-2------2--------------|
D|-4------2--------------|    X2
A|-4------0--------------|
E|-----------------------|


Chorus:

   E     F#m     A      E
e|-0------0------0------0-|
B|-0------0------2------0-|
G|-1------2------2------1-|
D|-2------4------2------2-|    X2
A|-2------4------0------2-|
E|-0--------------------0-|

  F#m     E
e|-0------0--------------|
B|-0------0--------------|
G|-2------1--------------|
D|-4------2--------------|    X2
A|-4------2--------------|
E|--------0--------------|


Bridge:

 F#m    Asus2
e|-0------0--------------|
B|-0------2--------------|
G|-2------2--------------|
D|-4------2--------------|    X4
A|-4------0--------------|
E|-----------------------|

    A
e|--0--|
B|--2--|
G|--2--|
D|--2--|   X1
A|--0--|
E|-----|


Chorus:

   E     F#m     A      E
e|-0------0------0------0-|
B|-0------0------2------0-|
G|-1------2------2------1-|
D|-2------4------2------2-|    X5
A|-2------4------0------2-|
E|-0--------------------0-|


Outro:
  F#m     E
e|-0------0--------------|
B|-0------0--------------|
G|-2------1--------------|
D|-4------2--------------|    X2
A|-4------2--------------|
E|--------0--------------|
Tap to rate this tab
# A B C D E F G H I J K L M N O P Q R S T U V W X Y Z