Song name
# A B C D E F G H I J K L M N O P Q R S T U V W X Y Z

Mat Kearney - Poor Boy tab

Help us improve GuitareTab! Take a short survey!
Band: Mat Kearney
Song: Poor Boy
Tuning: Standard

Intro Guitar 1              X5
e|---------------------------------------------------------------------------|
B|---------------------------------------------------------------------------|
G|---7/10-10-101010-101010-1010/5-5/7-777-777-777----------------------------|
D|---------------------------------------------------------------------------|
A|---------------------------------------------------------------------------|
E|---------------------------------------------------------------------------|

Guitar 2 Comes in after Guitar 1 plays that twice Starting the Verse
e|---------------------------------------------------------------------------|
B|-----6----------6--6------------6------------6--6---------6---6--6--6------|
G|---------7---7----7--------7--------7----7-----7-------------7--7--7-------|
D|-3/55--5---5--5----------5---5----5----5---5---------3/55------------------|
A|---------------------------------------------------------------------------|
E|---------------------------------------------------------------------------|

e|---------------------------------------------------------------------------|
B|-------6--------6--6--6--6-------------------------------------------------|
G|----7--------7---7--7--7--------------X4-----------------------------------|
D|------5----5--5------------------------------------------------------------|
A|---------------------------------------------------------------------------|
E|---------------------------------------------------------------------------|


And That is played for the entire verse

Brige Guitar X2
e|---------------------------------------------------------------------------|
B|-------11-10-------------11------------------------------------------------|
G|---5/10-----10------5/10---------------------------------------------------|
D|---------------------------------------------------------------------------|
A|---------------------------------------------------------------------------|
E|---------------------------------------------------------------------------|


e|---------------------------------------------------------------------------|
B|---------11-10-8-----------11----------------------------------------------|
G|---5/10--10-10-8----5/10---10---X2-----------------------------------------|
D|---------------------------------------------------------------------------|
A|---------------------------------------------------------------------------|
E|---------------------------------------------------------------------------|

  Courus 
e|---------------------------------------------------------------------------|
B|----11-10---11-10-8--------------------------------------------------------|
G|----10-10---10-10-8--------------------------------------------------------|
D|---------------------------------------------------------------------------|
A|---------------------------------------------------------------------------|
E|---------------------------------------------------------------------------|


Repeat Verse

Outro
e|---------------------------------------------------------------------------|
B|---------------------------------------------------------------------------|
G|---7/10-10-101010-101010-1010/5-5/7-777-777-777----------------------------|
D|---------------------------------------------------------------------------|
A|---------------------------------------------------------------------------|
E|---------------------------------------------------------------------------|


It's not perfect so please leave any correction ;)
Related for Poor Boy tab