Song name
# A B C D E F G H I J K L M N O P Q R S T U V W X Y Z

Mat Kearney - Closer To Love chords

Highlighted       Show chord diagrams
Closer to Love
 Mat Kearney

   Hopefully this clears things up with this song



                         In the 2nd Verse you hear a guitar
 This is the Piano       in the background playing these Pulloffs a couple
                         times with the piano
e|--3--------------|          e|-----------|
B|-----3--1--------|          B|--3p1------|
G|-----------------|          G|-----------|
D|-----------------|          D|-----------|
A|-----------------|          A|-----------|
E|-----------------|          E|-----------|


   C   Fmaj7   G5   Dm7
e|-0-| |-0-| |-3-| |-1-|
B|-1-| |-1-| |-3-| |-1-|
G|-0-| |-2-| |-0-| |-2-|
D|-2-| |-3-| |-0-| |-0-|
A|-3-| |-3-| |-x-| |---|
E|---| |-0-| |-3-| |---|

(Verse 1)
She got the call today, One out of the gray
And when the smoke cleared, It took her breath away
She said she didn't believe, It could happen to me
I guess we're all one phone call from our knees
We're gonna get there soon

If every building falls, And all the stars fade
We'll still be singing this song, The one they can't take away
I'm gonna get there soon, She's gonna be there too
Cryin' in her room, Prayin' Lord come through
We're gonna get there soon


(Chorus)
C
Oh it's your light, Oh it's your way
Fmaj7
Pull me out of the dark, Just to shoulder the weight
Dm7                              G5
Cryin' out now, From so far away
                      Fmaj7   C   G5
You pull me closer to looooooooooove
Am        Fmaj7     C      G5
Closer to looooooooooooooove

(Verse 2) [Pulloffs added]

 Meet me once again, Down off Lake Michigan
Where we could feel the storm blowin' down with the wind
And don't apologize, For all the tears you've cried
You've been way too strong now for all your life
Famj7                 C                           Famj7
  I'm gonna get there soon, You're gonna be there too
               Am                          Fmaj7   G5
Cryin' in your room, Prayin' Lord come through

We're gonna get there soon


(Chorus)

C
Oh it's your light, Oh it's your way
Fmaj7
Pull me out of the dark, Just to shoulder the weight
Dm7                              G5
Cryin' out now, From so far away
                      Fmaj7   C   G5
You pull me closer to looooooooooove
Am        Fmaj7     C      G5
Closer to looooooooooooooove



(Bridge) [Refer to outro]

Cause you are all that I've waited for all of my life
(We gonna get there)
You are all that I've waited for all of my life

                         C
You pull me closer to love, ooooh hooooo
          Dm7
Closer to love, ooooh hooooo
                   Fmaj7    C     G5
Pull me closer to looooooooooooooove
Famj7                C         G5
Pull me closer to love,   oooh hooooo
 Fmaj7         C   Am
Closer to love, oh no
 Fmaj7     C           G5
Closer to love,  ooooh hooooo
Fmaj7     C         Am
Closer to looooooooove



(Outro) Without tab

Fmaj7 C Am G5,  Fmaj7 C G5
                           You pull me closer to love
Fmaj7 C Am G5,  Fmaj7 C G5

(Outro) With tab

 (The Outro is also played at the bridge)

   Famj7  C     Am        G5       Fmaj7  C        G5
   v ^ v  ^      v v      v ^      v ^ v  ^  v     v   v ^
e|-0-0-0--0------0-0------3-3------0-0-0--0--0-----3---3-3-----|
B|-1-1-1--1------1-1------3-3------1-1-1--1--1-----3---3-3-----|
G|-2-2-2--0------2-2------0-0------2-2-2--0--0-----0---0-0-----|
D|-3-3-3--2------2-2------0-0------3-3-3--2--2-----0---0-0-----|
A|-3-3-3--3------0-0------x-x------3-3-3--3--3-----x---x-x-----|
E|-0-0-0------------------3-3------0-0-0-----------3---3-3-----|


   Famj7  C     Am        G5       Fmaj7  C        G5
   v ^ v  ^      v v      v ^      v ^ v  ^  v     v
e|-0-0-0--0------0-0------3-3------0-0-0--0--0-----3---|
B|-1-1-1--1------1-1------3-3------1-1-1--1--1-----3---|
G|-2-2-2--0------2-2------0-0------2-2-2--0--0-----0---|
D|-3-3-3--2------2-2------0-0------3-3-3--2--2-----0---|
A|-3-3-3--3------0-0------x-x------3-3-3--3--3-----x---|
E|-0-0-0------------------3-3------0-0-0-----------3---|


p = Pulloff
v = Down strum
^ = Up strum
Tap to rate this tab
 
# A B C D E F G H I J K L M N O P Q R S T U V W X Y Z