Song name
# A B C D E F G H I J K L M N O P Q R S T U V W X Y Z

Mat Kearney - Learning To Love Again chords

Highlighted       Show chord diagrams
--------------------------------------------------------------------------------------------
			     Learning To Love Again - Mat Kearney
--------------------------------------------------------------------------------------------
IMPORTANT NOTES:

Other versions of this tab were pretty close, but I'm a Mat Kearney nut and I'm
also a perfectionist.  I study the way Mat plays the guitar, and I know his chord
choices quite well.


*REFERENCE VIDEO*
http://www.youtube.com/watch?v=8JpiYMbqDZo

--------------------------------------------------------------------------------------------

Tuning: Standard
Capo:  6th (Studio), 5th (Live)

Chords Used in this Song:

 ---------------------
|                     |
|  Am        (x02210) |
|  G6        (3x0030) |
|  Fmaj7     (x33210) |
|  C         (x32010) |
|  C/B       (x20010) |
|  Gmaj6     (x55430) |
|                     |
 ---------------------

--------------------------------------------------------------------------------------------

Intro/Verse is sometimes played with hammer-ons:

       Am      G6        Fmaj7     C

e|---0---------0---------0---------0---------|
B|---0h1-------3---------1---------1---------|
G|---0h2-------0---------0h2-------0---------|
D|---0h2-------0---------3---------0h2-------|
A|---0---------x---------3---------3---------|
E|---x---------3---------x---------x---------|

--------------------------------------------------------------------------------------------

Intro:

Am	G6     	Fmaj7      C

Am	G6     	Fmaj7      C

--------------------------------------------------------------------------------------------

Verse 1:


Am            G6                   Fmaj7        C
   Your poker face ain’t fooling nobody,      nobody here


Am           G6                 Fmaj7           C
   We’ve all felt the flame and shed those same tears


Am                   G6                  Fmaj7                 C
   Driving home to a one man hell, still counting years, still counting years


Am     G6                Fmaj7             C
   Hey brother we’re all learning to love again

--------------------------------------------------------------------------------------------

Chorus 1:


Am                    G6               Fmaj7                 C
  ‘Cause that was the real you running through the fields of gold wide open


Am            G6        Fmaj7      C
  Standing in places no picture contains


Am             G6                Fmaj7                    C
  That was the real you, windows down, we could smell the mint fields crying


Am                 G6         Fmaj7         C
  Singin' with the radio to a song we can’t name


Am             G6               Fmaj7              C
  That was the real you saying, “Maybe I’m not too young to be a cowboy.”


Am     G6                Fmaj7             C
   Hey brother we’re all learning to love again


Am     G6                Fmaj7             C
   Hey brother we’re all learning to love again

--------------------------------------------------------------------------------------------

Verse 2: (Same as Verse 1)


Making up your bed that day on a foreign floor between foreign walls
Thinking ‘bout the words you’d say to a phone that never calls
Feel the weight of your father’s ring and all those dreams, and all those dreams
Hey brother, we’re all learning to love again

--------------------------------------------------------------------------------------------

Chorus 2: (Same as Chorus 1)


‘Cause that was the real you running through the fields of gold wide open
Standing in places no picture contains
That was the real you, windows down, we could smell the mint fields crying
Singin' with the radio to a song we can’t name
That was the real you saying, “Maybe I’m not to young too be a cowboy.”
Hey brother, we’re all learning to love again
Hey brother, we’re all learning to love again

--------------------------------------------------------------------------------------------

Bridge: (Studio Version)


Fmaj7               Gmaj6     Am
  I know you like I know my reflection


Fmaj7                            Gmaj6      C
  Walking on the water ‘cross an ocean of desire


Fmaj7                Gmaj6          Am
  Everyone I know is looking for protection, Trying to


Fmaj7                              G6        C
  pull down your hometown ‘cross a telephone wire


Fmaj7	C


         G6        C
'cross a telephone wire

--------------------------------------------------------------------------------------------

Bridge: (Live Version)


Fmaj7               Gmaj6     Am
  I know you like I know my reflection


Fmaj7                            Gmaj6      C
  Walking on the water ‘cross an ocean of desire


Fmaj7                Gmaj6          Am
  Everyone I know is looking for protection, Trying to


Fmaj7                              G6        C
  pull down your hometown ‘cross a telephone wire


         G6        C
'cross a telephone wire

--------------------------------------------------------------------------------------------

Verse/Chorus (Same as Verse 1,2 and Chorus 1,2)

‘Cause that was the real you standing there in the shape of your body
Fear don’t know no love when we’re all the same
That was the real you looking back across the water
Tears falling like rain drops rippling against the shame
That was the real you singing hallelujah, looking down a barrel
Hey brother, we’re all learning to love again
Hey brother, we’re all learning to love again
Hey brother, we’re all learning to love again

--------------------------------------------------------------------------------------------

Outro: (As Played by Mat Kearney Himself in the Reference Video)


Fmaj7	Gmaj6	C

Fmaj7   Gmaj6   Am

Fmaj7	Gmaj6   C   Fmaj7   C   C/B

Fmaj7

--------------------------------------------------------------------------------------------
Tap to rate this tab
# A B C D E F G H I J K L M N O P Q R S T U V W X Y Z