Song name
# A B C D E F G H I J K L M N O P Q R S T U V W X Y Z

Mat Kearney - Runaway tab

Mat Kearney - Runaway

Intro:
e|-------------------------------9-9---7-7-------------------------------|
B|-------7-7---10-10---7-7------------------10-10------------------------|
G|--9-9----------------------9-9-----------------------------------------|
D|-----------------------------------------------------------------------|
A|-----------------------------------------------------------------------|
E|-----------------------------------------------------------------------|

e|-------------------------------7-7-------------------------------------|
B|-------7-7---10-10---7-7-----------10-10---9-9-------------------------|
G|--9-9----------------------9-9-----------------------------------------|
D|-----------------------------------------------------------------------|
A|-----------------------------------------------------------------------|
E|-----------------------------------------------------------------------|

and repeat


Outro:
e|-------------------------------7-7-------------------------------------|
B|-------7-7---10-10---7-7-----------10-10---9-9-------------------------|
G|--9-9----------------------9-9-----------------------------------------|
D|-----------------------------------------------------------------------|
A|-----------------------------------------------------------------------|
E|-----------------------------------------------------------------------|

e|-------------------------------9-9---7-7-------------------------------|
B|-------7-7---10-10---7-7------------------10-10------------------------|
G|--9-9----------------------9-9-----------------------------------------|
D|-----------------------------------------------------------------------|
A|-----------------------------------------------------------------------|
E|-----------------------------------------------------------------------|
Tap to rate this tab
 
# A B C D E F G H I J K L M N O P Q R S T U V W X Y Z