Guitaretab - guitar tabs
Song name
# A B C D E F G H I J K L M N O P Q R S T U V W X Y Z

Mat Kearney - Girl America tab

This is a tab i came up with after watching some shitty youtube videos but i think that
sounds better than any other tabs i have tried. This is basically the who song except
chours doesn't have the hammer on's.  If the chord isn't listed to be played it is open. 
This is my first tab so let me know how i did.  Listen to the song for the best 
patterns.

Tabbed by: Cory
Email:

Tuning: Standard
Verse
[ Tab from: http://www.guitaretab.com/m/mat-kearney/81138.html ]
e|-------------x--------------------x--2---2-2-----------------|
B|----------1h-x--3-----3-3--3---3--x--3---3-3-----------------|
G|-------2--2--x--------------------x--2---2-2-----------------|
D|-------2--2--x-----------------2h-x--------------------------|
A|-------------x--x-----x----2---2--x--------------------------|
E|-------------x--3--3--3-3--o------x--------------------------|

Chours

e|------------x--------------------x--2--2-2------------------------|
B|------1--1--x--3-----3-3--3--3---x--3--3-3------------------------|
G|------2--2--x--------------------x--2--2-2------------------------|
D|------2--2--x-------------2--2---x--------------------------------|
A|------------x-------------2--2---x--------------------------------|
E|------------x--3--3--3-3---------x--------------------------------|
Related for Girl America tab
Advertisement will be closed in 10 seconds