Song name
# A B C D E F G H I J K L M N O P Q R S T U V W X Y Z

Mat Kearney - Whats A Boy To Do tab

Standard Tuning

Hey everyone, this is my first tab, so I could be a little off.  If you have any input, 
me know.

-x---x---x------------|
-x---x---x------------|
-2---6---4---x4-------|  Intro
-2---6---4------------|
-0---4---2------------|
-0---4---2------------|

"I'm sure that I'm moving to St Louis..."
-x---x---x------------|
-x---x---x------------|
-2---6---4---x9-------|  First Verse into 1st Chorus
-2---6---4------------|
-0---4---2------------|
-0---4---2------------|

"Daddy's been looking down his nose at all of them"
-0---4---2------------|
-0---4---2------------|
-2---6---4---x9-------|  2nd verse into 2nd chorus
-2---6---4------------|
-0---4---2------------|
-0---4---2------------|

"well I'll stack all my books in perfect rows"...(single strum)
-0---4---2------------|
-0---4---2------------|
-2---6---4---x4-------|
-2---6---4------------|
-0---4---2------------|
-0---4---2------------|

Well it was just a rainy night at his house
-0---4---2------------|
-0---4---2------------|
-2---6---4---x5-------|
-2---6---4------------|
-0---4---2------------|
-0---4---2------------|

"It's all quiet for the first time"
-0-----2-----4-----0--------|
-0-----2-----4-----0--------|
-2-----4-----6-----2---x2---|
-2-----4-----6-----2--------|
-0-----2-----4-----0--------|
-0-----2-----4-----0--------|

"it's not like those days"
-0---4---2---0---4---2---|
-0---4---2---0---4---2---|
-2---6---4---2---6---4---|
-2---6---4---2---6---4---|
-0---4---2---0---4---2---|
-0---4---2---0---4---2---|

"What's the son of a man and a boy to do?"
-x---x---x----|
-x---x---x----|
-2---6---4----|
-2---6---4----|
-0---4---2----|
-0---4---2----|
Tap to rate this tab
# A B C D E F G H I J K L M N O P Q R S T U V W X Y Z