Song name
# A B C D E F G H I J K L M N O P Q R S T U V W X Y Z

Mat Kearney - Memorial Stones tab

Help us improve GuitareTab! Take a short survey!
Standard Tuning

This song is off of one of Mat's older EPs.
Go to http://youtube.com/watch?v=U-t43DuOciM
if you want to listen to a good version of this song. its a rare video of Mat playing 
stones" in a church.

Chord Progression:

e-x-x-x-x
B-x-x-x-x
G-7-6-4-2-|
D-0-0-0-0-|
A-x-x-x-x
E-7-5-3-2

im pretty sure it just repeats this throughout the whole song:

Intro:

e------------------------------------------------------------------------|
B------------------------------------------------------------------------|
G--------7----------6-------4---2--------------7-----------6-----4---6---|
D-----0----0-----0----0-----0------0--------0-----0-----0-----0----------|
A------------------------------------------------------------------------|
E--7----------5----------3------2-----2--7-----------5-----------3---5---|

Main Verse:

e-------------------------------------------|
B-------------------------------------------|
G-----7--------6--------4--------2----------|
D--------0--------0--------0--------0-------|
A-------------------------------------------|
E--7--7-----5--5-----3--3-----2--2-----2/7--|

End of Verse variation(The end to is a little different)

e------------------------------------------|
B------------------------------------------|
G-----7--------6--------4-----2---4--6--7--|
D--------0--------0--------0---------------|
A------------------------------------------|
E--7--7-----5--5-----3--3-----2---3--5--7--|


Chorus:
Same as the main verse just without the slide

Great song..
Related for Memorial Stones tab