Song name
# A B C D E F G H I J K L M N O P Q R S T U V W X Y Z

Mat Kerekes - Calling Quits tab

Capo 9th Fret
~~=hold

Intro/verse
e)0-0-0-0-0-0-0-0-0-0-0-0-0-0-0-0-0-0-0-0-0-0-0-0-0-0-0-|
B)0-1-1-1-1-1-1-1-1-1-1-1-1-1-1-1-1-1-1-1-1-1-1-1-1-1-1-|
G)2-2-2-2-2-2-2-0-2-2-2-2-2-2-0-0-0-0-0-0-0-0-0-0-0-0-0-|
D)2-2-2-2-2-2-2-3-3-3-3-3-3-3-2-2-2-2-2-2-2-0-0-0-0-0-0-|
A)----------------------------3-3-3-3-3-3-3-2-2-2-2-2-2-|
E)------------------------------------------3-3-3-3-3-3-|

e)0-0-0-0-0-0-0-0-0-0-0-0-0-0-0-0-0-0-0-0-0-0~~|
B)0-1-1-1-1-1-1-1-1-1-1-1-1-1-1-1-1-1-1-1-1-1~~|
G)2-2-2-2-2-2-2-0-2-2-2-2-2-2-0-0-0-0-0-0-0-0~~|
D)2-2-2-2-2-2-2-3-3-3-3-3-3-3-2-2-2-2-2-2-2-0~~|
A)----------------------------3-3-3-3-3-3-3-2~~|
E)------------------------------------------3~~|

Chorus
e)O-0-0-0-0-----------0-0-0-0-0-0-0-0-0-0-0-0~~|
B)1-1-1-1-1-1-1-1-1-1-1-1-1-1-1-1-1-1-1-1-1-1~~|
G)2-2-2-2-2-0-0-0-0-0-0-0-0-0-0-0-2-2-2-2-2-2~~|
D)3-3-3-3-3-0-0-0-0-0-2-2-2-0-0-0-2-2-2-2-2-3~~|
A)----------2-2-2-2-2-3-3-3-2-2-2------------~~|
E)----------3-3-3-3-3-------3-3-3------------~~|

He ends on
e)0
B)1
G)0
D)2
A)3
E)-
Tap to rate this tab
 
# A B C D E F G H I J K L M N O P Q R S T U V W X Y Z