Song name
# A B C D E F G H I J K L M N O P Q R S T U V W X Y Z

Mat Mchugh - Numb tab

C1 =D -------X-------------X---------------|
    A ----1--X---------1---X-1-------------|
    F ----0--X-----0---0---X-0-------------|
    C -------X-----2-------X---------------|
    G -3-----X-----3---3---X----3----------|
    D -------X-------------X---------------|

Am1=D --------X-----------------------------|
    A ----1---X-----------------------------|
    F ----2---X----2---------0h2p0----------|
    C --------X----2----0h2----------0------|
    G -0------X----0------------------------|
    D --------X-----------------------------|

F = D ------------X-----------X-------------|
    A ---------1--X---1---1---X-------------|
    F ---------2--X---2---2---X-------------|
    C ---------3--X---3---3---X-------------|
    G ------------X-----------X-------------|
    D --0--1------X---1---1---X-------------|


G = D-------------X-----------X-------------|
    A --------3---X---3---3---X-------------|
    F --------0---X---0---0---X-------------|
    C --------0---X---0---0---X-------------|
    G ------------X-----------X-------------|
    D -0--3-------X---3---3---X-------------|


Am2=D ---------0--X-------------------------|
    A ---------1--X-------------------------|
    F ---------2--X-------------------------|
    C ------------X-------------------------|
    G --0--0------X-------------------------|
    D ------------X-------------------------|


G/B=D --------3---X-------------------------|
    A --------3---X-------------------------|
    F --------0---X-------------------------|
    C ------------X-------------------------|
    G --0--2------X-------------------------|
    D ------------X-------------------------|


C2= D ---------0--X---0--0--X---------------|
    A ---------1--X---1--1--X---------------|
    F ---------0--X---0--0--X---------------|
    C ------------X---------X---------------|
    G ---0--3-----X---3--3--X---------------|
    D ------------X---------X---------------|

C                                             Am1
So tell me now what it is that you think that Iíve done
C                                                Am1
Itís too cold around here, without your love and Iím numb
C                                   Am1
So crucify me, if it makes you feel alright
C                         Am1
But Iím around if you get lonely tonight

F                         G
Letís say goodbye now and let it go
Am2               G/B                C2
Cause loving you, like this is never easy
F                  G
Youíll be my girl always you know
Am2                   G/B              C2
But that doesnít mean that you will be with me
F           G             C
Time takes away the pain eventually

C                           Am1
Every day ends, but another will come
C                                   Am1
And I wonít forget it, never let it undone
C                                           Am1
Seems every mileís been, walked by a better man than I
C                                           Am1
And Iím trying believe where your pen ainít holding your might

F                          G
Does never fall they donít ever rise
Am2                     G/B         C2
But Iím getting through no hurry in reason
F                    G
Knelt down before in paradise
Am2                     G/B             C2
And said you never knew one thing about freedom
F           G             C
Time slowly washes by the seasons


F                         G
Letís say goodbye now and let it go
Am2               G/B                C2
Cause loving you, like this is never easy
F                  G
Youíll be my girl always you know
Am2                   G/B              C2
But that doesnít mean that you will be with me
F           G             C
Time takes away the pain eventually


On the end
C, Am, C, Am, C, Am, C, D -----------------------0--------|
                        A -----------------------1--------|
                        F ---2-------------------2--------|
                        C ------2----------------2--------|
                        G -----------3---2---0---0--------|
                        D --------------------------------|
Tap to rate this tab
# A B C D E F G H I J K L M N O P Q R S T U V W X Y Z