Song name
# A B C D E F G H I J K L M N O P Q R S T U V W X Y Z

Mat Mchugh - Stange Days tab

This is my first tab, I couldn't find it anywhere and it was driving me nuts
so I tried to figure it out. Let me know if there are any mistakes! The same
riff is repeated throughout the song, except for a short bridge which I
couldn't really hear but tried anyway...

Capo 2

Main:

   Am                F               C
e----------------------------------------------------------------------------|
B-----1----------------------------------------------------------------------|
G-----2-----2----------2----2----------------0---------------0---------------|
D-----2-------2--0-----3------3--0-----0h2------------0h2--------------------|
A--0-----0-------------3-------------3-----3---3-2-3-------3---2-------------|
E--------------------1----1--------------------------------------------------|


   Am                F               C
e----------------------------------------------------------------------------|
B-----1----------------------------------------------------------------------|
G-----2-----2----------2----2----------------0---------------0---------------|
D-----2-------2--0-----3------3--0-----0h2------------0h2--------------------|
A--0-----0-------------3-------------3-----3----2-3--------3---2-------------|
E--------------------1----1--------------------------------------------------|


Bridge:

Guitar 1:
e----------------------------------------------------------------------------|
B------------------------------------------------------1---------------------|
G---------------------0------------0---------0---------0---0-----------------|
D----------0-------0---0-------0----0-----0---0--------2-----2--0------------|
A----0h2----------2-----------2----------2-------0-2-3-----------------------|
E--3-----3-----3-----------3-----------3--------3----------------------------|

           ...start at main again

Guitar 2:
e----------------------------------------------------------------------------|
B---3--3--x-----0---0h1--1--x-----0----3--3--x-----0---0h1--1--x-----0-------|
G------------0-----------------0----------------0-----------------0----------|
D----------------------------------------------------------------------------|
A----------------------------------------------------------------------------|
E----------------------------------------------------------------------------|
Tap to rate this tab
# A B C D E F G H I J K L M N O P Q R S T U V W X Y Z