Song name
# A B C D E F G H I J K L M N O P Q R S T U V W X Y Z

Mata Ratos - Xip Xip tab

fig.1
e|------------------------------------------------------------------|
B|------------------------------------------------------------------|
G|-7-7-----------7-----7-7----------7-------------------------------|
D|-7-7-----------7-----7-7-7-7-7-7--7-------------------------------|
A|-5-5--7-7-7-7--5-----5-5-7-7-7-7--5-5-5-5-5-5-5-5-5---------------|
E|------5-5-5-5------------5-5-5-5----------------------------------|

fig.2
e|------------------------------------------------------------------|
B|------------------------------------------------------------------|
G|-10-10--12-12---7-7-----------------------------------------------|
D|-10-10--12-12---7-7-7-7-7-----------------------------------------|
A|-8--8---10-10---5-5-7-7-7-----------------------------------------|
E|--------------------5-5-5-----------------------------------------|

fig.3
e|------------------------------------------------------------------|
B|------------------------------------------------------------------|
G|-7~-10/9/8/7-----10/9/8/10/12~/7~---------------------------------|
D|-7~-10/9/8/7~----10/9/8/10/12~/7~---7-7-7-7-7-7-------------------|
A|-5~-8 /7/6/5~----8 /7/6/8~/10~/5~---7-7-7-7-7-7-------------------|
E|------------------------------------5-5-5-5-5-5-------------------|


in choords:

(intro/verse)
D A D (x2)

F7 G7 D A

(chorus)
D F7 E7 D# D
D F7 E7 D# F7 G7 D A
Tap to rate this tab
 
# A B C D E F G H I J K L M N O P Q R S T U V W X Y Z