Mataplantas - Locurita tab

De las dos formas suena igual, pero una es mas comoda que la otra.

Intro: La-Re

Opcion 1

1/----7-5----9-5----12-5----9-5---7-5----------------------------|
2/--5-----7------7-------7------7-----7--------------------------|
3/---------------------------------------------------------------|
4/---------------------------------------------------------------|
5/---------------------------------------------------------------|
6/---------------------------------------------------------------|

Opcion 2

1/----------------9-------12-------9-----------------------------|
2/-------12-10------10-------10------10-----12-10----------------|
3/-----9-------11------11-------11------11--------11-------------|
4/---------------------------------------------------------------|
5/---------------------------------------------------------------|
6/---------------------------------------------------------------|

La
el mago de la mira del espiral
el mago de la mira del espiral
   Re                           La
te toma la cabeza y da vueltas, redondo
el mago de la mira del espiral
el mago de la mira del espiral
   Re                            La
te tira mil patadas violetas, te asusta

Mi
si sigue mitad primavera
                       Re
si sigue la tarde y es falso                  La
un tiro al desierto en la cabeza del viento

la reina de la vida de los demas
la reina de la vida de los demas
esconde los secretos mas altos en peces
la reina de la vida de los demas
la reina de la vida de los demas
te peina la cabeza con algas de lluvia

si sigue mitad primavera
si sigue despierta y es falso
un tiro al desierto en la cabeza del viento

Distorcion (De Caro)
a5(x8)-b5(x8)-c#5(x8)-d5(x3)-c#5(x3)-d5(x3)-c#5(x3-b-|5(x3)
a5(x8)-b5(x8)-c#5(x8-d5(x8)-e------------------------|5(x8)

lo ultimo es un quilombo sacarlo, lo dejo para despues jaja

saludos!
Tap to rate this tab
 
# A B C D E F G H I J K L M N O P Q R S T U V W X Y Z