Song name
# A B C D E F G H I J K L M N O P Q R S T U V W X Y Z

Match And Daddy - Pasame La Botella tab

e/---------------------------------------------------|
B/---------------------------------------------------|
G/------7s8-6-5-5s6---------------------5s6-5-3-3s5~-|
D/--5-5-------------5~-5s7-7~-7-7-7-7s5--------------|
A/---------------------------------------------------|
E/---------------------------------------------------|


e/--------------------------------------------------|
B/--------------------------------------------------|
G/------7s8-6-5-5s6---------------------5s6-5-3-1~--|
D/--5-5-------------5~-5s7-7~-7-7-7-7s5-------------|
A/--------------------------------------------------|
E/--------------------------------------------------|
Tap to rate this tab
# A B C D E F G H I J K L M N O P Q R S T U V W X Y Z