Song name
# A B C D E F G H I J K L M N O P Q R S T U V W X Y Z

Matchbook Romance - Monsters tab

                                                     Monsters
                                                  By Matchbook Romance


Intro :
______________________________________________

e|--13------------13------------13------------12-13-14/16-----|
B|-----11--14--11----11--14--11----11--14--11-----------------|
G|------------------------------------------------------------| x8
D|------------------------------------------------------------|
A|------------------------------------------------------------|
E|------------------------------------------------------------|



Chorus :
______________________________________________

e|----------------------------------------------------------|
B|----------------------------------------------------------|
G|--3-------------6-----------------------------------------|
D|--3------4------6-------3------4------2-------------------| x2
A|--1(x6)--4------4(x6)---3------4------0-------------------|
E|---------2(x6)----------1(x6)--2(x6)--0(x6)---------------|



Pre-solo :
______________________________________________

e|------------------------------------------------------|
B|------------------------------------------------------|
G|------------------------------------------------------|
D|--3--3--3-3-3-3-3------3-1---1------------------------|
A|--1--1--1-1-1-1-1(x3)-------4---4-3-------------------|
E|-----------------------------------0------------------|


e|--------------------------------------------------------|
B|--------------------------------------------------------|
G|--------------------------------------------------------|
D|--8-7----3--1/3\1-----8/11\10-10/13\11-11/15\8-7--------|
A|------------------4-------------------------------------|
E|--------------------------------------------------------|


Tapping part :

   T    T    T    T    T    T    T    T
e|--------------------------------------------------------|
B|--------------------------------------------------------|
G|-15-3-15-3-15-3-15-3-11-3-11-3-10-3-10-3----------------| x3
D|--------------------------------------------------------|
A|--------------------------------------------------------|
E|--------------------------------------------------------|
   T    T    T    T    T    T    T    T
e|---------------------------------------------|
b|---------------------------------------------|
G|-15-3-15-3-15-3-15-3-18-3-18-3-17-3-17-3-----|
D|---------------------------------------------|
A|---------------------------------------------|
E|---------------------------------------------|


Solo :
__________________________________________________

e|--------------------------------------------------------------------9---|
B|---------------------------------------------------------------9b-------|
G|-8b-8b-8b-8b--8b-8--6-----6-------------6h8--8b---8--6-----6------------|
D|-----------------------8-----------6h8------------------8---------------|
A|------------------------------6h8---------------------------------------|
E|------------------------------------------------------------------------|

e|------------------------------------------------------------------|
B|-9-------7-------6------------------------------------------------|
G|--------------------------8-------6-------5-----------------------|
D|--------------------------------------------------8-------7-------|
A|------------------------------------------------------------------|
E|------------------------------------------------------------------|

e|------------------------------------------------|
B|------------------------------------------------|
G|------------------------------------------------|
D|----------------------6-6-7-7-8-8---------------|
A|-------------6-6-8-8----------------------------|
E|-6-6-8-8-9-9------------------------------------|

e|-------------------------------------------|
B|------------------6-6-9-9-10-10-11-11------|
G|---------6-6-8-8---------------------------|
D|-6-6-8-8-----------------------------------|
A|-------------------------------------------|
E|-------------------------------------------|


e|---------------------------------------------------------------------------------|
B|-000111222222111000-(x2)----000222444444222000-(x2)----000444666666444000-(x2)---|
G|---------------------------------------------------------------------------------|
D|---------------------------------------------------------------------------------|
A|---------------------------------------------------------------------------------|
E|---------------------------------------------------------------------------------|


e|---------------------------------------------------------------------------------------|
B|-000666888888666000-(x2)----000777999999777000-(x2)----000999111111111111999000-(x2)---|
G|---------------------------------------------------------------------------------------|
D|---------------------------------------------------------------------------------------|
A|---------------------------------------------------------------------------------------|
E|---------------------------------------------------------------------------------------|


e|---------------------------------------------------|
B|-666666666777777777999999999101010101010101010-----|
G|---------------------------------------------------|
D|---------------------------------------------------|
A|---------------------------------------------------|
E|---------------------------------------------------|

e|-8p6-----9p6-----8p6-----9p6---8-----------|
B|-----8-------8------8-------8--------------|
G|-------------------------------------------| x2
D|-------------------------------------------|
A|-------------------------------------------|
E|-------------------------------------------|

Chorus ( 3:13 )
______________________________________________

e|-------------------------------------------------------------|
B|-------------------------------------------------------------|
G|--3---------------6------------------------------------------|
D|--3--------4------6-------3------4-------2-------------------| x3
A|--1(x6)----4------4(x6)---3------4-------0-------------------|
E|-----------2(x6)----------1(x6)--2(x6)---0(x6)---------------|

e|--5/6--5--6--8--9--8--6-----0-------|
B|----------------------------0-------|
G|----------------------------1-------|
D|----------------------------2-------|
A|------------------------------------|
E|------------------------------------|
Tap to rate this tab
 
# A B C D E F G H I J K L M N O P Q R S T U V W X Y Z