Guitaretab - guitar tabs
Song name
# A B C D E F G H I J K L M N O P Q R S T U V W X Y Z

Matchbook Romance - Fiction tab

artist: matchbook romance
song: fiction
album: voices
time signature: 4/4
tunning: 1/2 step down (Eb - Ab - Db - Gb - Bb - Eb)


verse:
Eb-----------------------------|
Bb-----------------------------|
Gb-6-------------6-------------|
Db-6-x32--6------6-x32--6------|
Ab-4------6-x32--4------6-x32--|
Eb--------4-------------4------|

bridge:
Eb----------------------|
Bb----------------------|
Gb---------------6------|
Db-7------4------6-x32--|
Ab-7-x16--4-x16--4------|
Eb-5------2-------------|

Eb----------------------|
Bb----------------------|
Gb----------------------|
Db-7------4------6------|
Ab-7-x16--4-x16--6-x32--|
Eb-5------2------4------|

Eb----------------------------------|
Bb----------------------------------|
Gb-6------2-------------9-----5-----|
Db-6-x16--2-x16--4------9-x8--5-x8--| x2
Ab-4------0------4-x16--7-----3-----|
Eb---------------2------------------|

second verse has no guitar
[ Tab from: http://www.guitaretab.com/m/matchbook-romance/147364.html ]
bridge:
Eb----------------------|
Bb----------------------|
Gb---------------6------|
Db-7------4------6-x32--|
Ab-7-x16--4-x16--4------|
Eb-5------2-------------|

Eb----------------------|
Bb----------------------|
Gb----------------------|
Db-7------4------6------|
Ab-7-x16--4-x16--6-x32--|
Eb-5------2------4------|

Eb----------------------------------|
Bb----------------------------------|
Gb-6------2-------------9-----5-----|
Db-6-x16--2-x16--4------9-x8--5-x8--| x2
Ab-4------0------4-x16--7-----3-----|
Eb---------------2------------------|

bridge:
Eb-------|
Bb-------|
Gb-------|
Db-6-x64-|
Ab-4-----|
Eb-------|

Eb----------------|
Bb----------------|
Gb----------------|
Db----------------| x12
Ab-4---4-6---7----|
Eb---------4---4--|

Eb-------------------------------|
Bb-------------------------------|
Gb-6------6--2-------9--9--11-11-|
Db-6------6--2--4----------------| x2
Ab-4------4--0--4----7--7--9--9--|
Eb--------------2----------------|

chorus:
Eb----------------------------------|
Bb----------------------------------|
Gb-6------2-------------9-----5-----|
Db-6-x16--2-x16--4------9-x8--5-x8--| x3
Ab-4------0------4-x16--7-----3-----|
Eb---------------2------------------|

please rate and comment!
Related for Fiction tab
Fiction chords by Matchbook Romance