Song name
# A B C D E F G H I J K L M N O P Q R S T U V W X Y Z

Matchbook Romance - Monsters tab

Monsters - Matchbook Romance

For this tab you have to detune your guitar half step down,i hate detuning it too, but 
the only way to play the open C# part, i`m 100% sure this is correct, i slowed down the 
and listened carefully so im confident of every bit of this tab, enjoy!!

d#|-----------------------------------------------------------------|
A#|--7-----------------------------------7--------------------------|
F#|--9b11---9p7-----9/11-----------7h9---9b11---9p7-----9/11--------|
C#|--------------9-------------7h9-------------------9--------------|
G#|------------------------7h9--------------------------------------|
D#|-----------------------------------------------------------------|

*Note: In this part below the notes are bendings, in all the other
tabs are marked as single notes but if you listen carefully you`ll
notice that are bendings

d#|--------10-------------------------------------------------------|
A#|--10b12----------------------------------------------------------|
F#|-----------12b14--12--9b11--9------------------------------------|
C#|-------------------------------11b12--11--8b9--8-----------------|
G#|-----------------------------------------------------------------|
D#|-----------------------------------------------------------------|

d#|-----------------------------------------------------------------|
A#|-----------------------------------------------------------------|
F#|-----------------------------------------------------7-7--9-9----|
C#|-----------------------------7-7--8-8--9-9--7-7--9-9-------------|
G#|-------------------7-7--9-9--------------------------------------|
D#|--7-7--9-9--10-10------------------------------------------------|

d#|--------------7-7--10/-------------------------------------------|
A#|--7-7--10-10-----------0h2h3p2p0--0h2h3p2p0--0h3h5p3p0--0h3h5p3p0|
F#|-----------------------------------------------------------------|
C#|-----------------------------------------------------------------|
G#|-----------------------------------------------------------------|
D#|-----------------------------------------------------------------|

d#|-----------------------------------------------------------------|
A#|--0h5h7p5p0--0h5h7p5p0--0h7h8p7p0--0h7h8p7p0--0h8h10p8p0---------|
F#|-----------------------------------------------------------------|
C#|-----------------------------------------------------------------|
G#|-----------------------------------------------------------------|
D#|-----------------------------------------------------------------|

d#|-----------------------------------------------------------------|
A#|--0h8h10p8p0--0h10h12p10p0--0h10h12p10p0-------------------------|
F#|-----------------------------------------------------------------|
C#|-----------------------------------------------------------------|
G#|-----------------------------------------------------------------|
D#|-----------------------------------------------------------------|

*Note: The notes "1010101010101010101010" are tens but played very fast

d#|-----------------------------------------------------------------|
A#|--777777777777--888888888888--101010101010101010--12/------------|
F#|-----------------------------------------------------------------|
C#|-----------------------------------------------------------------|
G#|-----------------------------------------------------------------|
D#|-----------------------------------------------------------------|

d#|-----9p7---10p7---9p7---10p7---8-----9p7---10p7---9p7---10p7---8-|
A#|--7h8----7------7-----7------7---7h8-----8------8------8-----8---|
F#|-----------------------------------------------------------------|
C#|-----------------------------------------------------------------|
G#|-----------------------------------------------------------------|
D#|-----------------------------------------------------------------|

So here it is, i love this solo and im a bit obbsesive so believe me
it`s all correct, any comments e-mail me
at the_guitarist_skater@hotmail.com
Tap to rate this tab
# A B C D E F G H I J K L M N O P Q R S T U V W X Y Z