Song name
# A B C D E F G H I J K L M N O P Q R S T U V W X Y Z

Matchbook Romance - Promise chords

Highlighted       Show chord diagrams
Intro:
e|----0--0--0--0--0----0--0--0--0--0----0--0--0--0--0----0--0--0--0--0-|
B|----0--0--0--0--0----0--0--0--0--0----0--0--0--0--0----0--0--0--0--0-|
G|---------------------------------------------------------------------|
D|---------------------------------------------------------------------| 2x
A|--7---7--7--7--7---2---2--2--2--2---0---0--0--0--0---------0--2--2---|
E|-----------------------------------------------------2--4------------|

e|----0--0--0--7--0----0--0--2--0--0----0--2--5--4--2------------------|
B|----0--0--0--7--0----0--0--2--0--0----0--2--5--4--2------------------|
G|---------------------------------------------------------------------|
D|------------------------------------------------------4--6--7~-/-2~--| 
A|--7---7--7--7--7---2---2--2--2--2---0---0--0--0--0----4--6--7~-/-2~--|
E|------------------------------------------------------2--4--5~-/-0~--|


Verse I:
E                B                         A
  What would you say if I asked you not to go
                       B                                  E
to forget everyone, forget everything and start over with me
                  B                     A
would you take my hand and never let me go
                  B
promise me you'll never let me go


Refrain:
E                            B
  And the stars aren't out tonight
                           A
But neither are we to look up at them
Why does hello feel like goodbye?
E                         B
  These memories can't replace,
                                A
These wishes i wished and these dreams i chased
F#m       G#m    A         B       E
Take this broken heart and make it right


Chorus:
       E           C#m                    A
I feel like I lost everything when you're gone
       B                   E       C#m
Left remembering what it's like to have you here with me
   A
I thought you should know,
       B
You're not making this easy


Verse II:
E                                          B     
    I never thought I'd be the one to say
A                                              B
please don't, please don't leave me


Chorus:
       E           C#m                    A
I feel like I lost everything when you're gone
       B                   E       C#m
Left remembering what it's like to have you here with me
   A
I thought you should know,
       B                E  E-F#m-G#m 
You're not making this easy


Bridge I:
You're not making this easy (easy, easy, easy...)
C#m-B-A


Bridge II:
C#m     B        A
Take my hand and never let me go,
C#m     B        A
Take my hand and never let me go,
C#m     B
Promise me...
             A
You'll never let go
             B
You'll never let go
             A
You'll never let go
             B
You'll never let go
Make this last forever


Repeat Chorus

Happy Playing. :D
Tap to rate this tab
# A B C D E F G H I J K L M N O P Q R S T U V W X Y Z