Song name
# A B C D E F G H I J K L M N O P Q R S T U V W X Y Z

Matchbook Romance - Your Stories My Alibis tab

----------------------------------------------------------------------------
	     Your Stories My Alibis - Matchbook Romance
----------------------------------------------------------------------------

Email: bat6man9@hotmail.com

Tuning: Drop D




Guitar 1's Parts:
-----------------

Intro:
E|-------------------------||     |-------------------------||    
B|-------------------------||     |---------44--------------||    
G|-------------------------||     |-------------------6-5---||    
D|--------1010-------------|| x2  |------66-------66--------|| x2
A|-----88---------88-11-9--||     |---44-------44-----------||    
D|--88---------88----------||     |-------------------------||   
PM  .. ..      .. ..                  .. ..    .. ..

E|-------------------------||     |-------------------------|| |-----|| 
B|-------------------------||     |---------44--------------|| |--6~~||
G|-------------------------||     |-------------------6-5---|| |--5~~||
D|--------1010-------------|| x2  |------66-------66--------|| |--3~~||
A|-----88---------88-11-9--||     |---44-------44-----------|| |-----||
D|--88---------88----------||     |-------------------------|| |-----||
PM  .. ..      .. ..                 ..  ..    .. 

Chorus 1:
E|------------------------------------------------------------------||
B|------------------------------------------------------------------||
G|-33333-5/6/5-x-3333-66/5-x------5/6/5-x------8/10/8-x------5/6/5--||
D|-33333-x/x/x-x-3333-xx/x-x-6666-x/x/x-x-6666-x/-x/x-x-4444-x/x/x--||
A|-11111-3/4/3-x-1111-44/3-x-6666-3/4/3-x-6666-6/-8/6-x-4444-3/4/3--||
D|---------------------------6666---------6666----------4444--------||
Continued:
E|-----------------||
B|-----------------||
G|--4444--8/10/8---||
D|--4444--x/-x/x---||
A|--4444--6/-8/6---||
E|--4444-----------||

 
E|------------------------------------||
B|------------------------------------||
G|--x131313-x131313-x141414-x171717---||
D|--x-x-x-x-x-x-x-x-x-x-x-x-x-x-x-x---|| 
A|--x111111-x111111-x121212-x151515---||
D|------------------------------------||

E|------------------------------------------------------------------||
B|------------------------------------------------------------------||
G|-33333-5/6/5-x-3333-66/5-x------5/6/5-x------8/10/8-x------5/6/5--||
D|-33333-x/x/x-x-3333-xx/x-x-6666-x/x/x-x-6666-x/-x/x-x-4444-x/x/x--||
A|-11111-3/4/3-x-1111-44/3-x-6666-3/4/3-x-6666-6/-8/6-x-4444-3/4/3--||
D|---------------------------6666---------6666----------4444--------||
Continued:
E|-----------------||
B|-----------------||
G|--4444--8/10/8---||
D|--4444--x/-x/x---||
A|--4444--6/-8/6---||
E|--4444-----------||

  
E|------------------------------------||
B|------------------------------------||
G|--x131313-x131313-x141414-x171717---||
D|--x-x-x-x-x-x-x-x-x-x-x-x-x-x-x-x---|| 
A|--x111111-x111111-x121212-x151515---||
D|------------------------------------||


Verse:
   __________________________x3____________________________
  |                                                        |
E|-------------------------||     |-------------------------||    
B|-------------------------||     |---------44--------------||    
G|-------------------------||     |-------------------6-5---||    
D|--------1010-------------|| x2  |------66-------66--------|| x2
A|-----88---------88-11-9--||     |---44-------44-----------||    
D|--88---------88----------||     |-------------------------||   
PM  .. ..      .. ..                  .. ..    .. ..

E|-------------------------||     |-----------------------| |-----||    
B|-------------------------||     |---------44------------| |-----||    
G|-------------------------||     |-------------------6-5-| |-----||    
D|--------1010-------------|| x2  |------66-------66------| |--6~~|| x2
A|-----88---------88-11-9--||     |---44-------44---------| |--6~~||    
D|--88---------88----------||     |-----------------------| |--6~~||   
PM  .. ..      .. ..                  .. ..    .. ..

Repeat Chorus 1 For Chorus 2

Repeat Verse


Chorus 3:
E|------------------------------------------------------------------||
B|------------------------------------------------------------------||
G|-33333-5/6/5-x-3333-66/5-x------5/6/5-x------8/10/8-x------5/6/5--||
D|-33333-x/x/x-x-3333-xx/x-x-6666-x/x/x-x-6666-x/-x/x-x-4444-x/x/x--||
A|-11111-3/4/3-x-1111-44/3-x-6666-3/4/3-x-6666-6/-8/6-x-4444-3/4/3--||
D|---------------------------6666---------6666----------4444--------||
Continued:
E|-----------------||
B|-----------------||
G|--4444--8/10/8---||
D|--4444--x/-x/x---||
A|--4444--6/-8/6---||
E|--4444-----------||


E|------------------------------------||
B|------------------------------------||
G|--x131313-x131313-x141414-x171717---||
D|--x-x-x-x-x-x-x-x-x-x-x-x-x-x-x-x---|| 
A|--x111111-x111111-x121212-x151515---||
D|------------------------------------||

E|------------------------------------------------------------------||
B|------------------------------------------------------------------||
G|-33333-5/6/5-x-3333-66/5-x------5/6/5-x------8/10/8-x------5/6/5--||
D|-33333-x/x/x-x-3333-xx/x-x-6666-x/x/x-x-6666-x/-x/x-x-4444-x/x/x--||
A|-11111-3/4/3-x-1111-44/3-x-6666-3/4/3-x-6666-6/-8/6-x-4444-3/4/3--||
D|---------------------------6666---------6666----------4444--------||
Continued:
E|-----------------||
B|-----------------||
G|--4444--8/10/8---||
D|--4444--x/-x/x---||
A|--4444--6/-8/6---||
E|--4444-----------||


E|------------------------------------||
B|------------------------------------||
G|--x131313-x131313-x141414-x171717---||
D|--x-x-x-x-x-x-x-x-x-x-x-x-x-x-x-x---|| 
A|--x111111-x111111-x121212-x151515---||
D|------------------------------------||

Interlude:
E|------------------------------------------------------------------||
B|------------------------------------------------------------------||
G|--333333333333-----------666666------------666666-666666-555555---||
D|--333333333333-666666666-xxxxxx-4444444444-xxxxxx-666666-555555---||
A|--111111111111-666666666-444444-4444444444-444444-444444-333333---||
D|---------------666666666--------4444444444------------------------||
                            
E|---------------------------------------------------------------------||
B|---------------------------------------------------------------------||
G|--333333333333-----------666666------------666666-666666-555555-3~~--||
D|--333333333333-666666666-xxxxxx-4444444444-xxxxxx-666666-555555-3~~--||
A|--111111111111-666666666-444444-4444444444-444444-444444-333333-1~~--||
D|---------------666666666--------4444444444---------------------------||

Chorus 4:
E|--------------------------------------------------------------||
B|--------------------------------------------------------------||
G|--66/5-x------5/6/5-x------8/10/8-x------5/6/5-x------8/10/8--||
D|--xx/x-x-6666-x/x/x-x-6666-x/-x/x-x-4444-x/x/x-x-4444-x/-x/x--||
A|--44/3-x-6666-3/4/3-x-6666-6/-8/6-x-4444-3/4/3-x-4444-6/-8/6--||
D|---------6666---------6666----------4444---------4444---------||

E|------------------------------------||
B|------------------------------------||
G|--x131313-x131313-x141414-x171717---||
D|--x-x-x-x-x-x-x-x-x-x-x-x-x-x-x-x---|| 
A|--x111111-x111111-x121212-x151515---||
D|------------------------------------||

E|------------------------------------------------------------------||
B|------------------------------------------------------------------||
G|-33333-5/6/5-x-3333-66/5-x------5/6/5-x------8/10/8-x------5/6/5--||
D|-33333-x/x/x-x-3333-xx/x-x-6666-x/x/x-x-6666-x/-x/x-x-4444-x/x/x--||
A|-11111-3/4/3-x-1111-44/3-x-6666-3/4/3-x-6666-6/-8/6-x-4444-3/4/3--||
D|---------------------------6666---------6666----------4444--------||
Continued:
E|-----------------||
B|-----------------||
G|--4444--8/10/8---||
D|--4444--x/-x/x---||
A|--4444--6/-8/6---||
E|--4444-----------||


E|------------------------------------||
B|------------------------------------||
G|--x131313-x131313-x141414-x171717---||
D|--x-x-x-x-x-x-x-x-x-x-x-x-x-x-x-x---|| 
A|--x111111-x111111-x121212-x151515---||
D|------------------------------------||

Outro:
E|------------------------------------------------------------------||
B|------------------------------------------------------------------||
G|--333333333333-----------666666------------666666-666666-555555---||
D|--333333333333-666666666-xxxxxx-4444444444-xxxxxx-666666-555555---||
A|--111111111111-666666666-444444-4444444444-444444-444444-333333---||
D|---------------666666666--------4444444444------------------------||
  
E|------------------------------------------------------------------||
B|------------------------------------------------------------------||
G|--333333333333-----------666666------------666666-666666-555555---||
D|--333333333333-666666666-xxxxxx-4444444444-xxxxxx-666666-555555---||
A|--111111111111-666666666-444444-4444444444-444444-444444-333333---||
D|---------------666666666--------4444444444------------------------||

E|----------------------------------||
B|----------------------------------||
G|--33-33-3/5-55-5/6-66-6/8-88-3~---||
D|--33-33-3/5-55-5/6-66-6/8-88-3~---||
A|--11-11-1/3-33-3/4-44-4/6-66-1~---||
D|----------------------------------||


Guitar 2's Parts:
-----------------

Chorus 1:
E|-----------------------------------------------------------------||
B|-----------------------------------------------------------------||
G|--33333/15-x3333-5/6/5-------8888-------8888-------11-------10---||
D|--33333/15-x3333-5/6/5-x6666------x6666------x4444--x-x4444--x---||
A|--11111/13-x1111-3/4/3-x6666------x6666------x4444--9-x4444--8---||
D|-----------------------x6666------x6666------x4444--0-x4444--0---||
P.M.                           ....       ....

E|------------------------||
B|------------------------||
G|--x666-x666-------------||
D|--x666-x666-x333-x333---|| 
A|--x444-x444-x333-x333---||
D|------------x333-x333---||

E|-----------------------------------------------------------------||
B|-----------------------------------------------------------------||
G|--333333333-x3333x3333-------8888-------8888-------11-------10---||
D|--333333333-x3333x3333-x6666------x6666------x4444--x-x4444--x---||
A|--111111111-x1111x1111-x6666------x6666------x4444--9-x4444--8---||
D|-----------------------x6666------x6666------x4444--0-x4444--0---||
P.M.                           ....       ....

E|------------------------||
B|------------------------||
G|--x666-x666-------------||
D|--x666-x666-x333-x333---|| 
A|--x444-x444-x333-x333---||
D|------------x333-x333---||

Verse: 
E|-----------------------------------------------------------------||
B|-----------------------------------------------------------------||
G|-----------------------------------------------------------------||
D|--88-88-88-88-66-66-66-66-44-44-44-44-888888888888888888888888---||
A|--88-88-88-88-66-66-66-66-44-44-44-44-888888888888888888888888---||
D|--88-88-88-88-66-66-66-66-44-44-44-44-888888888888888888888888---||
PM  .. .. .. .. .. .. .. .. .. .. .. .. ........................

E|--------------------------------------------||
B|--------------------------------------------||
G|--------------------------------------------||
D|--------------------------------------------|| x4
A|--8-8-8-8-9-9-8-8-8-8-11-11-11-11-9-9-8-8---||
D|--------------------------------------------||
PM  . . . . . . . . . . . . . . . . . . . .
(slowly release the last time)

E|-----------------------------------------------||
B|-----------------------------------------------||
G|--11111111111111111111-10101010101010101010/---||
D|---x-x-x-x-x-x-x-x-x-x--x-x-x-x-x-x-x-x-x-x/---||
A|---9-9-9-9-9-9-9-9-9-9--8-8-8-8-8-8-8-8-8-8/---||
D|-----------------------------------------------||

Chorus 2: 
E|-----------------------------------------------------------------||
B|-----------------------------------------------------------------||
G|--333333333-x3333x3333-------8888-------8888-------11-------10---||
D|--333333333-x3333x3333-x6666------x6666------x4444--x-x4444--x---||
A|--111111111-x1111x1111-x6666------x6666------x4444--9-x4444--8---||
D|-----------------------x6666------x6666------x4444--0-x4444--0---||
PM                             ....       ....

E|------------------------||
B|------------------------||
G|--x666-x666-------------||
D|--x666-x666-x333-x333---|| 
A|--x444-x444-x333-x333---||
D|------------x333-x333---||

E|-----------------------------------------------------------------||
B|-----------------------------------------------------------------||
G|--333333333-x3333x3333-------8888-------8888-------11-------10---||
D|--333333333-x3333x3333-x6666------x6666------x4444--x-x4444--x---||
A|--111111111-x1111x1111-x6666------x6666------x4444--9-x4444--8---||
D|-----------------------x6666------x6666------x4444--0-x4444--0---||
PM                             ....       ....

E|------------------------||
B|------------------------||
G|--x666-x666-------------||
D|--x666-x666-x333-x333---|| 
A|--x444-x444-x333-x333---||
D|------------x333-x333---||

Repeat Verse

Chorus 3:
E|-----------------------------------------------------------------||
B|-----------------------------------------------------------------||
G|--333333333-x3333x3333-------8888-------8888-------11-------10---||
D|--333333333-x3333x3333-x6666------x6666------x4444--x-x4444--x---||
A|--111111111-x1111x1111-x6666------x6666------x4444--9-x4444--8---||
D|-----------------------x6666------x6666------x4444--0-x4444--0---||
PM                             ....       ....

E|------------------------||
B|------------------------||
G|--x666-x666-------------||
D|--x666-x666-x333-x333---|| 
A|--x444-x444-x333-x333---||
D|------------x333-x333---||

E|-----------------------------------------------------------------||
B|-----------------------------------------------------------------||
G|--333333333-x3333x3333-------8888-------8888-------11-------10---||
D|--333333333-x3333x3333-x6666------x6666------x4444--x-x4444--x---||
A|--111111111-x1111x1111-x6666------x6666------x4444--9-x4444--8---||
D|-----------------------x6666------x6666------x4444--0-x4444--0---||
PM                             ....       ....

E|---------------------------||
B|---------------------------||
G|--x666-x666-----------6~---||
D|--x666-x666-x333-x333-6~---|| 
A|--x444-x444-x333-x333-4~---||
D|------------x333-x333------||

Interlude:
E|------------------------------------------------------------------||
B|------------------------------------------------------------------||
G|--------653-653-653-653-865-865-865-865-11108-11108-11108-11108---||
D|--xxxxx-xxx-xxx-xxx-xxx-xxx-xxx-xxx-xxx--x-xx--x-xx--x-xx--x-xx---||
A|--xxxxx-431-431-431-431-643-643-643-643--9-86--9-86--9-86--9-86---||
D|--xxxxx-----------------------------------------------------------||

E|---------------------------||
B|---------------------------||
G|--88888-1010101010-55555---||
D|--xxxxx--x-x-x-x-x-xxxxx---||
A|--66666--8-8-8-8-8-33333---||
D|---------------------------||

E|------------------------------------------------------------------||
B|------------------------------------------------------------------||
G|--------653-653-653-653-865-865-865-865-11108-11108-11108-11108---||
D|--xxxxx-xxx-xxx-xxx-xxx-xxx-xxx-xxx-xxx--x-xx--x-xx--x-xx--x-xx---||
A|--xxxxx-431-431-431-431-643-643-643-643--9-86--9-86--9-86--9-86---||
D|--xxxxx-----------------------------------------------------------||

E|---------------------------------------------------------------|
B|----------------------------------------------------------------|
G|--88888-1010101010-88888-1010101010-11111111111111111111-1010--||
D|--xxxxx--x-x-x-x-x-xxxxx--x-x-x-x-x--x-x-x-x-x-x-x-x-x-x--x-x-x-x-x-x-x-x
A|--66666--8-8-8-8-8-66666--8-8-8-8-8--9-9-9-9-9-9-9-9-9-9--8-8-8-8-8-8-8-|
D|------------------------------------------------------------------------|

Chorus 4:
(After guitar one plays slide)
E|------------------------------------------------------||
B|------------------------------------------------------||
G|--3333x3333-------8888-------8888-------11-------10---||
D|--3333x3333-x6666------x6666------x4444--x-x4444--x---||
A|--1111x1111-x6666------x6666------x4444--9-x4444--8---||
D|------------x6666------x6666------x4444--0-x4444--0---||
PM                  ....       ....

E|------------------------||
B|------------------------||
G|--x666-x666-------------||
D|--x666-x666-x333-x333---|| 
A|--x444-x444-x333-x333---||
D|------------x333-x333---||

E|---------------------------------------------------------------||
B|---------------------------------------------------------------||
G|--x3333333-3333x3333-------8888-------8888-------11-------10---||
D|--x3333333-3333x3333-x6666------x6666------x4444--x-x4444--x---||
A|--x1111111-1111x1111-x6666------x6666------x4444--9-x4444--8---||
D|---------------------x6666------x6666------x4444--0-x4444--0---||
PM                           ....       ....

E|------------------------||
B|------------------------||
G|--x666-x666-------------||
D|--x666-x666-x333-x333---|| 
A|--x444-x444-x333-x333---||
D|------------x333-x333---||

Outro:
E|------------------------------------------------------------||
B|------------------------------------------------------------||
G|--653-653-653-653-865-865-865-865-11108-11108-11108-11108---||
D|--xxx-xxx-xxx-xxx-xxx-xxx-xxx-xxx--x-xx--x-xx--x-xx--x-xx---||
A|--431-431-431-431-643-643-643-643--9-86--9-86--9-86--9-86---||
D|------------------------------------------------------------||

E|---------------------------||
B|---------------------------||
G|--88888-1010101010-55555---||
D|--xxxxx--x-x-x-x-x-xxxxx---||
A|--66666--8-8-8-8-8-33333---||
D|---------------------------||

E|------------------------------------------------------------------||
B|------------------------------------------------------------------||
G|--------653-653-653-653-865-865-865-865-11108-11108-11108-11108---||
D|--xxxxx-xxx-xxx-xxx-xxx-xxx-xxx-xxx-xxx--x-xx--x-xx--x-xx--x-xx---||
A|--xxxxx-431-431-431-431-643-643-643-643--9-86--9-86--9-86--9-86---||
D|--xxxxx-----------------------------------------------------------||

E|-----------------------------------------------------------------||
B|-----------------------------------------------------------------||
G|--88888-1010101010-88888-1010101010------------------------------||
D|--xxxxx--x-x-x-x-x-xxxxx--x-x-x-x-x-88-8-888-8-888-8-888-8-88~---||
A|--66666--8-8-8-8-8-66666--8-8-8-8-8-88-8-888-8-888-8-888-8-88~---||
D|------------------------------------88-8-888-8-888-8-888-8-88~---||

| .  palm mute note
| /  slide up
| \  slide down
| h  hammer-on
| p  pull-off
| ~  vibrato
| +  harmonic
| x  Mute note
============================================================================
Tap to rate this tab
 
# A B C D E F G H I J K L M N O P Q R S T U V W X Y Z