Song name
# A B C D E F G H I J K L M N O P Q R S T U V W X Y Z

Matchbook Romance - Goody Like Two Shoes tab

song: goody, like two shoes
artist: matchbook romance
time signature: 6/8
transcribed by:muse676


intro:
eb-------------------------------------------------|
bb-------------------------------------------------|
gb-7-7-7-7-7-7-7-7-7-7-7-7-7-7-7-7-7-7-7-7-7-7-7-7-|
db-------------------------------------------------|
ab-------------------------------------------------|
eb-------------------------------------------------|

eb-------------------------------------------------------------------------|
bb-------------------------------------------------------------------------|
gb-7-7-7-7-7-7-9-9-9-9-9-9-9-9-9-9-9-9-11-11-11-11-11-11-11-11-11-11-11-11-|
db-------------------------------------------------------------------------|
ab-------------------------------------------------------------------------|
eb-------------------------------------------------------------------------|

eb-------------------------------------------|
bb-------------------------------------------|
gb-12-12-12-12-12-12-6-6-6-6-6-6-6-6-6-7-6-6-|
db-------------------------------------------|
ab-------------------------------------------|
eb-------------------------------------------|

eb-------------------------------------------------------------------------|
bb-------------------------------------------------------------------------|
gb-7-7-7-7-7-7-9-9-9-9-9-9-9-9-9-9-9-9-11-11-11-11-11-11-11-11-11-11-11-11-|
db-------------------------------------------------------------------------|
ab-------------------------------------------------------------------------|
eb-------------------------------------------------------------------------|

eb-------------------------------------------|
bb-------------------------------------------|
gb-12-12-12-12-12-12-6-6-6-6-6-6-6-6-6-7-6-6-|
db-------------------------------------------|
ab-------------------------------------------|
eb-------------------------------------------|

eb-------------------------------------|
bb-------------------------------------|
gb-4----4--------4----4---------4----4-|
db-4----4--------4----4---------4----4-|
ab-2----2--------2----2---------2----2-|
eb-------------------------------------|

eb-----------------|
bb-----------------|
gb-----------------|
db-----------------| x6
ab-2-2-2-2-2-5-2-0-|
eb-----------------|

eb---------------|
bb---------------|
gb-4---6---7---9-|
db-4---6---7---9-|
ab-2---4---5---7-|
eb---------------|

sorry that's as much as i can work out
i've been looking for ages for other tabs of this song but couldn't find any
so i tried to transcribe it
it's better than nothing
Tap to rate this tab
 
# A B C D E F G H I J K L M N O P Q R S T U V W X Y Z