Song name
# A B C D E F G H I J K L M N O P Q R S T U V W X Y Z

Matchbox 20 - Damn tab

I've been playing this for almost 2 years now. I am 99% sure that it is 100% right. Enjoy!
e-------------------------------7------------------------------------------|
g-7^------7^-/10v---10-8-7-8-10---10--------------------------------10-7---|
b-----7v----7-------------------------9-7-----------7-7/9\7------7-------7-|
d-----------------------------------------7v----7/9----------7/9-----------|
a--------------------------------------------------------------------------|
E--------------------------------------------------------------------------|


e-------------10-7------------|
g-10-8-7-8-10------8/10v------|
b-----------------------------|
d-----------------------------|
a-----------------------------|
E-----------------------------|
Tap to rate this tab
 
# A B C D E F G H I J K L M N O P Q R S T U V W X Y Z