Guitaretab - guitar tabs
Song name
# A B C D E F G H I J K L M N O P Q R S T U V W X Y Z

Matchbox 20 - Argue tab

-------------------------------------------------------------------------------
                        ARGUE - Matchbox Twenty
-------------------------------------------------------------------------------

This whole thing is two guitars, but one can do it pretty easily.

Intro:
   D        Em        C       G 
e|----0-------------|-----------------|
B|o-----------------|---3------------o|
G|--2---2-----------|-----------------|
D|--0-----0-------4-|-5---5-----5-----|
A|o-----------2-----|-3-----3-5---5--o|
E|----------0---0---|---------3---3---|

Verse:
  D                 C                 G      Gmaj7 G6    Em7     Cadd9
  P.M.-------|      P.M.-------|      P.M.          P.M.
e|-----------------|-----------------|-----3---2---0---|-0---0---0-0-0-2-|
B|-----------------|-------------3---|-----3---3---3---|-3---3---3-3-3-3-|
G|-----------------|-----5-5-----2-2-|-----0---2---0---|-0---0---0---0-2-| x2
D|-7-7-7-7-7-7-7-5-|-----5---5-5---0-|-----------------|-2---2---2---2-0-|
A|-5-5-5-5-5-5-5-5-|-3-3-3---3-3-----|-----------------|-2---2---3---3---|
E|-----------------|-----------------|-3-3-----------0-|-0---0-----------|

Well she don't, but she will, he says anything to keep her by him
And she takes, what she gets, and she never did flinch, no

Prechorus:
  D                 Aadd9             Cadd9             G
e|-------0-------0-|-------0---------|-----------------|-3---------------|
B|---3-------3-----|-----------0-----|-------3---------|-3---------------|
G|-2---2-----------|-2---2---------0-|-----0-----------|-0---------------|
D|-0---------------|-2-2-------------|---2-------------|-0---------------|
A|-----------------|-0---------------|-3---------------|-2---------------|
E|-----------------|-----------------|-----------------|-3---------------|

So over, and over, well anyone with any mind would think that's all she gets
[ Tab from: http://www.guitaretab.com/m/matchbox-20/201214.html ]
Chorus
  D       Em9       Cadd2#4  Gmaj7
e|-----2-------2---|-----2-------2---|
B|-3-3-3-------3---|-----3-------3---|
G|-2-2-------------|-0-0-----0-0-----|
D|-0-0-----2-2-----|-2-2-----0-0-----| x4
A|---------2-2-----|-3-3-----2-2-----|
E|---------0-0-----|---------3-3-----|

If you want, you can get to know me well
We get along, so we shouldn't argue, yeah
And I don't know, yeah, said I don't know, no
All these feelings cloud up my reasoning

Post-Chorus (really, this is 2 guitars, but if you have a whammy, it would sound good)
   D                 G       C
e|-----------------|-----------------|
B|---3-----------3-|-------------1---|
G|-----2-----2-----|---0-------0---0-| x2
D|-0-----0-0---0---|-0---0-----------|
A|-----------------|-------2-3-------|
E|-----------------|-----------------|

Verse

Well I know, but I still believe in ignorance as my best defence
So go on, wreck me, it's funny how I carry on, and not be taken

Prechorus

Over, I will not roll over on anyone, cause anyone would stand up on my side

Chorus

Post-Chorus

Bridge:
  C      D             Em9     Cadd9
                    x3 Then
e|-----------0h2------|-----------0-----|
B|-1-------------3----|-------3-----3---|
G|-0-----2----------2-|-----0---------0-| x2
D|-2-----0------------|---4-----2-------|
A|-3------------------|-2-------3-------|
E|--------------------|-0---------------|

You know, it's funny how sometimes, it don't workout like you want to
No, you never get nothin' at all
And then she tells you that itís over, boy, donít you hate it when itís over
I guess some things just got lost, and it deeply saddens me

Prechorus

So over, and over, well anyone, yeah anyone

Chorus

Outro: Play the intro riff with whammy. End on D5 (xx023x)


| /  slide up
| \  slide down
| h  hammer-on
| p  pull-off
| ~  vibrato
| +  harmonic
| x  Mute note
===============================================================================
Related for Argue tab
Argue chords by Matchbox 20