Song name
# A B C D E F G H I J K L M N O P Q R S T U V W X Y Z

Matchbox 20 - The Difference tab

----------------------------------------------------------------------------
			     Real World - Matchbox 20
----------------------------------------------------------------------------
Tabbed by: Zach
Email: caribbean_bud@yahoo.com

Tuning:

e|-3-2-3-0---------0---------0---------------------------------------------|
B|---------3-0-1-3---3~0-1-3--3~-0-----------------------------------------|
G|---------------------------------0-2-2-----------------------------------|
D|---------------------------------------5~--------------------------------|
A|-------------------------------------------------------------------------|
E|-------------------------------------------------------------------------|
Tap to rate this tab
# A B C D E F G H I J K L M N O P Q R S T U V W X Y Z