Guitaretab - guitar tabs
Song name
# A B C D E F G H I J K L M N O P Q R S T U V W X Y Z

Matchbox 20 - Mad Season tab

the rhythm and the lead jump back and forth.this is everything for the(lead )
e(--44-33-6-3-------)(--44-33-)(-------)(--------)                    (verse)
b(--66-44-----2-1---)(--66-44-)(-------)(--------)
g(----------------3-)(--------)(--3333-)(--6p5---)
d(------------------)(--------)(-------)(------8-)
a(------------------)(--------)(-------)(--------)
E(------------------)(--------)(-------)(--------)
     (x5)

this is everything for the rhythm verse
e(--------------)(---------------------------------------)
b(--------------)(---------------------------------------)
g(--5-3-3-5-3-3-)(----------------------------------3333-)
d(--3-1-1-3-1-1-)(--555555553333333355555555555555555555-)
a(--------------)(--333333331111111133333333333333333333-)
E(--------------)(---------------------------------------)

rhythm verse continued
   (x5)
e(--------)(-------------------------)
b(--------)(-------------------------)
g(--5-3-3-)(--5555555533333333333333-)
d(--3-1-1-)(--3333333311111111111111-)
a(--------)(-------------------------)
E(--------)(-------------------------)
[ Tab from: http://www.guitaretab.com/m/matchbox-20/31986.html ]
pre-chorus   both play  
e(------------------------------------------)
b(------------------------------------------)
g(-------------555-55-5-3------------555-55-)
d(--666-666-xx-555-55-5-3-666-666-xx-555-55-)
a(--666-666-xx-333-33-3-1-666-666-xx-333-33-)
E(--444-444-xx------------444-444-xx--------)

chorus  x4
e(-------------------)
b(-------------------)
g(--3-3-333-5-55-555-)
d(--3-3-333-5-55-555-)
a(--1-1-111-3-33-333-)
E(-------------------)

chorus lead
e(--6-6-666-8-88-888-6-6-666-8-88-888-11-9-------)
b(-----------------------------------------13-11-)
g(-----------------------------------------------)
d(-----------------------------------------------)
a(-----------------------------------------------)
E(-----------------------------------------------)

second verse rhythm   x9
e(----------)
b(----------)
g(----------)
d(------1-3-)
a(--1-3-----)
E(----------)

bridge x3
e(------------------------)
b(--1-3-11-11-11-11-11-13-)
g(------------------------)
d(------------------------)
a(------------------------)
E(------------------------)

solo
e(-----------------------------------------------------------------------)
b(--11-------------13b---------18h20----18h20----18-20-18----------------)
g(--------------------------20-------20-------20----------19-17-15-14----)
d(-----12-10-12-14----12-14-------------------------------------------17-)
a(-----------------------------------------------------------------------)
E(-----------------------------------------------------------------------)
Related for Mad Season tab
Advertisement will be closed in 10 seconds