Song name
# A B C D E F G H I J K L M N O P Q R S T U V W X Y Z

Matchbox 20 - Hand Me Down tab

Transcribed by Saso Sandic

Solo 1:

|-9----------------------------------------|
|---11v-9----------------------------------|
|---------10-8h10v--6h8-8v-6---6h8-8v-6/---|
|----------------------------8-------------|
|------------------------------------------|
|------------------------------------------|

|------------------------------------------|
|------------------------------------------|
|-----6-8----------------------------------|
|-6h8-----6/8--6---------------------------|
|----------------/6-4-6-4v-----------------|
|------------------------------------------|

|-----------------6--------------------9v--|
|-------------------9-------------9-11-----|
|---------6-h8b10-----8b-6---8/10----------|
|-----6-8------------------8---------------|
|-6/8--------------------------------------|
|------------------------------------------|


Solo 2:

|------------------------------------------|
|---------------9-----9b11r9---------------|
|-8b108r-p6---6---8b---------8b10r-8-6-----|
|-----------8------------------------------|
|------------------------------------------|
|------------------------------------------|

|------------------------------------------|
|---------9b11v--9/11-9--------------------|
|---6-8b---------8/10-8-10v----------------|
|-8---------------------11v----------------|
|------------------------------------------|
|------------------------------------------|

|-9/11-11-9--------------------------------|
|-9/11-11-9-9----9--9-6-6h7-6v-------------|
|-----------8h10-10-8-6-6h8-6v-------------|
|------------------------------------------|
|------------------------------------------|
|------------------------------------------|
Tap to rate this tab
# A B C D E F G H I J K L M N O P Q R S T U V W X Y Z