Song name
# A B C D E F G H I J K L M N O P Q R S T U V W X Y Z

Matchbox 20 - If Youre Gone tab

Hey guys this is my first tab, but I studied this song for a while and found that this 
part sounds really close if its not totally right.
Good luck:)

"I think I've already lost you"
(------0--5--7--5--0--)
(----5-------------5--)
(---------------------)
(---------------------)
(---------------------)
(---------------------)

"I think your already gone"

"I think I'm finally scared now"
(------0--5--7--5--2--)
(----5-------------3--)
(---------------------)
(---------------------)
(---------------------)
(---------------------)

"YOU think i'm weak, but I think your wrong"
(---------------2-----------------------0--)
(---------------3-----------------------0--)
(------------------------------------------)
(------------------------------------------)
(------------------------------------------)
(------------------------------------------)

"I think your already leaving"
(------0--5--7--5--0--)
(----5-------------5--)
(---------------------)
(---------------------)
(---------------------)
(---------------------)

"feals like your hand is on the door"


"I thought this place was an empire"
(------0--5--7--5--2--)
(----5-------------3--)
(---------------------)
(---------------------)
(---------------------)
(---------------------)

"but now I'm relaxed,I cant be sure"
(---------------2---------------0----------)
(---------------3---------------0----------)
(------------------------------------------)
(------------------------------------------)
(------------------------------------------)
(------------------------------------------)


                       Bm                       E
And I think you're so mean - I think we should try
                 A                 D
 I think I could need - this in my life
                  Bm                   E
 I think I'm just scared - I think too much
   G
 I know it's wrong it's a problem I'm dealing with


Chorus:
          A                            D                E
 If you're gone - maybe it's time to go home
            Bm                        E
 There's an awful lot of breathing room
                  A       E
 But I can hardly move
           A                            D               E
 If you're gone - baby you need to come home
               Bm                      E
 Cos there's a little bit of something me
                  A   BM  D  E
 In everything in you
Verse 2:

A                         D
 I bet you're hard to get over
A          E               D
 I bet the room just won't shine
A                     D
 I bet my hands I can stay here
           Bm                   E
 I bet you need - more than you mind
Pre Chorus:
                       Bm                        E
 And I think you're so mean - I thinnk we should try
                 A                 D
 I think I could need - this in my life
                  Bm                       E
 I think I'm just scared - that I know too much
   G (P.M.)
 I can't relate and that's a problem I feeling
Chorus:
           A                            D              E
 If you're gone - maybe it's time to go home
            Bm                     E
 There's an awful lot of breathing room
                  A
 But I can hardly move
           A                            D              E
 If you're gone - baby you need to come home
               Bm                        E
 Cos there's a little bit of something me
                  Bm
 In everything in you
Instrumental solo tabbed for guitar:
    A       D        E       Bm
(--10---7--------------------------------------------|
(----------9--7--9--10-------------------------------|
(-----------------------9---7--10--9--7--------------|
(----------------------------------------9-----7--9--|
(----------------------------------------------------|
(----------------------------------------------------|
  E      A
(10--7-------------------|
(-------9--10--10--------|
(------------------------|
(------------------------|
(------------------------|
(------------------------|


Pre Chorus:
                       Bm                       E
 And I think you're so mean - I think we should try
                 A                 D
 I think I could need - this in my life
                  Bm                     E
 I think I'm just scared - do I talk too much


 I know it's wrong it's a problem I dealing
Chorus:
         A                            D                   E
 If your gone - maybe it's time to go home
            Bm                     E
 There's an awful lot of breathing room
                  A
 But I can hardly move
           A                            D
 If you're gone - baby you need to come home
               Bm                        E
 Cos there's a little bit of something me
               A  E   (play intro riff until end)
 In everything in you
A               E
 Something in me
            A
 Everything in
               E
 Something in me
    A
 In you
Tap to rate this tab
 
# A B C D E F G H I J K L M N O P Q R S T U V W X Y Z