Song name
# A B C D E F G H I J K L M N O P Q R S T U V W X Y Z

Matchbox Twenty - How Far Weve Come tab

Matchbox Twenty – How Far We’ve Come
Tabbed and arranged by: Alejandro Manzano of Boyce Avenue

www.myspace.com/boyceavenue

video of me playing/singing it:
http://www.youtube.com/watch?v=QmzN37j4z0I

Tuning: C  G  C  G  C  C

 x  = mute
 ^  = hammer on or pull off
< > = harmonic
/ \ = slide up or down

Intro/Verse 1: (play 3x)
------------------------------------------|
-----0---0^2-----2^0------0---0^2-----2^0-|
---0---0-----0----------0---0-----0-------|
-0-------------0--------------------------|
----------------------0-------------0-----|
------------------------------------------|

--------------------------------------------|
-----0---0^2-----2^0------0---5---4------0--|
---0---0-----0----------0---0---0---0-------|
--------------------------------------------|
-2-------------2----------------------------|
----------------------5----------------5--\-|

Chorus 1: (rakes)
-0----0----0----0----0----0----0----0-|
-0----0----0----2----0----0----0----2-|
-0----0----0----0----0----0----0----0-|
-4----x----0----2----4----x----0----2-|
-2----5--\-0----0----2----5--\-0----0-|
------5--\-0--------------5--\-0------|

---------------------------------------<12>-|
-----0---0^2-----2^0------0---0^2------<12>-|
---0---0-----0----------0---0-----0----<12>-|
-0-------------0------0-------------0-------|
--------------------------------------------|
--------------------------------------------|

Verse 2: (play 2x)
-----0---0^2-----2^0---0-----0---0^2-----2^0---0-|
-----0---0-------0-----0-----0---0-------0-----0-|
---0---0-----0-------0-----0---0-----0-------0---|
---0---0-----0-------0---2-2---2-----2-2-----2---|
-0-------------0---------0-------------0---------|
-0-------------0---------------------------------|

-----0---0^2-----2^0---0-----0---5---4-----0---0-|
-----0---0-------0-----0-----0---0---0-----0---0-|
---0---0-----0-------0-----0---0---0-0-0---0-0---|
-0-0---0-----0-0-----0---0-0---0---0---0-0---0---|
-2-------------2---------x---------------x-------|
-------------------------5---------------5-------|

-----0---0^2-----2^0---0-----0---0^2-----2^0---0-|
-----0---0-------0-----0-----0---0-------0-----0-|
---0---0-----0-------0-----0---0-----0-------0---|
---0---0-----0-------0---2-2---2-----2-2-----2---|
-0-------------0---------0-------------0---------|
-0-------------0---------------------------------|

-----0---0^2-----2^0---0-0-|
-----0---0-------0-----0-0-|
---0---0-----0-------0---0-|
-0-0---0-----0-0-----0---0-|
-2-------------2---------x-|
-------------------------5-|

Chorus 2: (play 3x)
-0----0----4----2-|
-0----0----0----0-|
-0----0----0----0-|
-4----x----0----x-|
-2----5----0----4-|
------5----0------|

Chorus 3: (rakes)
-0----0----<12>--4----2-|
-0----0----<12>--0----0-|
-0----0----<12>--0----0-|
-4----x----------0----x-|
-2----5---/------0----4-|
------5---/------0------|

Outro:
------------------------------------------|
-----0---0^2-----2^0------0---0^2-----2^0-|
---0---0-----0----------0---0-----0-------|
-0-------------0--------------------------|
----------------------0-------------0-----|
------------------------------------------|

----------------------0-|
-----0---0^2-----2^0--0-|
---0---0-----0--------0-|
----------------------x-|
-2-------------2------5-|
----------------------5-|
Tap to rate this tab
 
# A B C D E F G H I J K L M N O P Q R S T U V W X Y Z