Song name
# A B C D E F G H I J K L M N O P Q R S T U V W X Y Z

Matchbox Twenty - Bent tab

SUBMITTED BY MIKE 

I'VE TRIED ALL THE OTHER WAYS AND IT JUST DIDN'T SOUND RIGHT.
SO I WENT AHEAD AND I TRIED LISTENUNG. THIS IS HOW IT GOES. 

e-------------------------------------------------------------------------------
b-------------------------------------------------------------------------------
g--4-----4-----4-----4---2--1----------------4-----4-----4-----4---2--1---------
D--------------------------------2-------4---------------------------------2----
A------------------------------------4------------------------------------------
E-------------------------------------------------------------------------------

THAT'S THE INTRO. THESE ARE THE VERSE CHORDS.

e-9----7-------------ETC.
b-10---9-------------ETC.
g-11---9-------------ETC.
D-------------------------------------------------------------------------------
A-------------------------------------------------------------------------------
E-------------------------------------------------------------------------------

THE RIFF THAT GOES IN BETWEEN THE CHORDS IS THIS: 

e-------------------------------------------------------------------------------
b-------------------------------------------------------------------------------
g-------------------------------------------------------------------------------
D-2--4-----------2---4----------------------------------------------------------
A------------4------------------------------------------------------------------
E-------------------------------------------------------------------------------

THE PRE CHORUS IS THIS 

e-------------------------------------------------------------------------------
b-------------------------------------------------------------------------------
g-------------------------------------------------------------------------------
D----------------------4-----4------4------4------4------4----------------------
A----------------------2-----2------2------2------2------2----------------------
E--5---4----2-------------------------------------------------------------------

THE CHORUS COULD BE PLAYED THE SAME WAY OR YOU CAN USE THESE CHORDS INSTEAD: 

E,D,E,D,E (BAR CHORDS SUGGESTED) 

THE BRIDGE CHORDS ARE: 

F#m, DSUS 2 
e-2--0
b-2--3
g-2--2
D-4--0
A-4
E-2 

THE SOLO IS THE SAME AS THE INTRO. THEN IT JUST HITS THE CHORUS 2 MORE TIMES.
THAT RAPS IT ALL UP. HOPEFULLY I'LL HAVE MORE MATCHBOX 20 FOR YA.
Tap to rate this tab
# A B C D E F G H I J K L M N O P Q R S T U V W X Y Z