Song name
# A B C D E F G H I J K L M N O P Q R S T U V W X Y Z

Matchbox Twenty - How Far Weve Come tab

This is a really easy song to play. It took me about 10 minutes to learn it.
Intro
(Guitar 1)
e||---------------------------------------------------------------------|
B||-5555555555555555-5555555555553333-5555555555555555-6666666666666666-|
G||-5555555555555555-5555555555555555-5555555555555555-5555555555555555-|
D||---------------------------------------------------------------------|
A||---------------------------------------------------------------------|
E||---------------------------------------------------------------------|

(Guitar 2)
e||---------------------------------------------------------------------|
B||---------------------------------------------------------------------|
G||-5555555555555555----------------------------------------------------|
D||-5555555555555555-5555555555555555-7777777777777777-3333333333333333-|
A||-3333333333333333-5555555555555555-7777777777777777-3333333333333333-|
E||------------------3333333333333333-5555555555555555-1111111111111111-|

Verse
(Guitar 1)
e||---------------------------------------------------------------------|
B||-5555555555555555-3333333333333333-5555555555555555-6666666666666666-|
G||-5555555555555555-5555555555555555-5555555555555555-5555555555555555-|X2
D||---------------------------------------------------------------------|
A||---------------------------------------------------------------------|
E||---------------------------------------------------------------------|

(Guitar 2)
e||---------------------------------------------------------------------|
B||---------------------------------------------------------------------|
G||-5555555555555555----------------------------------------------------|X2
D||-5555555555555555-5555555555555555-7777777777777777-3333333333333333-|
A||-3333333333333333-5555555555555555-7777777777777777-3333333333333333-|
E||------------------3333333333333333-5555555555555555-1111111111111111-|

Chorus
(Guitar 1)
e||--------------|   |---------------------------------| ||
B||---5--5--5--5-|   |---5---5---5---5---3---3---3---3-| ||
G||-5--5--5--57--|X2 |-5---5---5---5---5---5---5---5---| ||X2
D||--------------|   |---------------------------------| ||
A||--------------|   |---------------------------------| ||
E||--------------|   |---------------------------------| ||

(Guitar 2)
e||---------------------------------------------------------------------|
B||---------------------------------------------------------------------|
G||-----------------------------------5555555555555555------------------|X2
D||-7777777777777777-3333333333333333-5555555555555555-5555555555555555-|
A||-7777777777777777-3333333333333333-3333333333333333-5555555555555555-|
E||-5555555555555555-1111111111111111------------------3333333333333333-|

Versex1

Chorusx1

Bridge Part 1
(Guitar 1)
e||---5335--|   |-----------| ||
B||-55----5-|   |-55-356535-| ||
G||---------|X3 |-----------| ||X2
D||---------|   |-----------| ||
A||---------|   |-----------| ||
E||---------|   |-----------| ||

No Guitar 2

Bridge Part 2
(Guitar 1)
e||-----------55335------------------|          |------------|
B||-5555555555-----5-3333333333333333|     both |------------|
G||----------------------------------|X4 guitars|----------4-|
D||----------------------------------|          |-5555-777-4-|
A||----------------------------------|          |-5555-777-2-|
E||----------------------------------|          |-3333-555---|

Chorusx1

Outro
(Guitar 1)
e||---------------------------------------------------------------------|
B||-5555555555555555-3333333333333333-5555555555555555-6666666666666666-|
G||-5555555555555555-5555555555555555-5555555555555555-5555555555555555-|
D||---------------------------------------------------------------------|
A||---------------------------------------------------------------------|
E||---------------------------------------------------------------------|

|----------------------------------------------------|
|-5555555555555555-3333333333333333-5555555555555555-|
|-5555555555555555-5555555555555555-5555555555555555-|
|----------------------------------------------------|
|----------------------------------------------------|
|----------------------------------------------------|

(Guitar 2)
e||---------------------------------------------------------------------|
B||---------------------------------------------------------------------|
G||-5555555555555555----------------------------------------------------|
D||-5555555555555555-5555555555555555-7777777777777777-3333333333333333-|
A||-3333333333333333-5555555555555555-7777777777777777-3333333333333333-|
E||------------------3333333333333333-5555555555555555-1111111111111111-|

|----------------------------------------------------|
|----------------------------------------------------|
|-5555555555555555-----------------------------------|
|-5555555555555555-5555555555555555-7777777777777777-|
|-3333333333333333-5555555555555555-7777777777777777-|
|------------------3333333333333333-5555555555555555-|

Ending (Guitar 1 & 2)
e||-------------------------|
B||-------------------------|
G||----------------4444-(5)-|let the last note ring
D||-3333-5555-7777-4444-(5)-|
A||-3333-5555-7777-2222-(3)-|
E||-1111-3333-5555----------|
Tap to rate this tab
# A B C D E F G H I J K L M N O P Q R S T U V W X Y Z