Guitaretab - guitar tabs
Song name
# A B C D E F G H I J K L M N O P Q R S T U V W X Y Z

Matchbox Twenty - Unwell tab

artist : matchbox 20
song: Unwell 
E-a-d-g-b-e

intro:
e|-----5-7-5---------5-7-5--5-|
b|-5h7-------7-5-5h7----------|
g|----------------------------| then...
d|----------------------------|
a|----------------------------|
E|----------------------------|

e|-----5-7-5---------5-7-5--4-|
b|-5h7-------7-5-5h7----------|
g|----------------------------| then...
d|----------------------------|
a|----------------------------|
E|----------------------------|

e|-----5-7-5---------5-7-5--5-----5-7-5---------5-7-5-
b|-5h7-------7-5-5h7----------5h7-------7-5-5h7-------
g|---------------------------------------------------- then
d|----------------------------------------------------
a|----------------------------------------------------
E|----------------------------------------------------

e|-----5-7-5---------5-7-5--4----------------|
b|-5h7-------7-5-5h7----------5---------77h9-|
g|------------------------------4--77h9------|
d|-------------------------------------------|
a|-------------------------------------------|
E|-------------------------------------------|

that's it!!
e-mail dalps@2die4.com


[ Tab from: http://www.guitaretab.com/m/matchbox-twenty/25739.html ]
Related for Unwell tab