Song name
# A B C D E F G H I J K L M N O P Q R S T U V W X Y Z

Matchbox Twenty - Real World tab

Real World - Matchbox 20

tabberkyleb@yahoo.com

Original song is in Bb, but played with open A tuned up 1/2 step

The chords are:

Intro - F#m(7)

Verses

A  E E  F#m(7)  D E A

Chorus
A  D E  D   A ....




However, my band plays it in D  ;)  (Chick singer)  So these runs
are writen in D.  Just subtract 4 or 5 from each fret # to
bring it down to the original.   Hope you can adjust



Intro lick - Song is in D, but this riff is on a Bm (or Bm7)
------------------------------------------------------------------------|
------------------------------------------------------------------------|
------------------------------------------------------------------------|
----7-h--9--7-----------------------------------------------------------|
-----------------9-p-7--------------------------------------------------|
------------------------10----------------------------------------------|


Verses

D  A A  Bbm(7)   G  A  D



Chorus

D   G  A  G   D

Solo 1

------15------------------------------------------------------------|
------17-...  Really difficult LOL----------------------------------|
--------------------------------------------------------------------|
--------------------------------------------------------------------|
--------------------------------------------------------------------|
--------------------------------------------------------------------|


Little bridge ("Please don't change...")

  Bm               D       Then Bm & D again w/o the walk down
                           Repeat
--------------------------------------------------------------------------|
--------------------------------------------------------------------------|
--------------------------------------------------------------------------|
--9--9--9----9--7--7------------------------------------------------------|
--9--9--9----9--7--5------------------------------------------------------|
--------------------------------------------------------------------------|




Solo 2
--------------------------------------------------------------------------|
--------------------------------------------------------------------------|
---8-/-10-/-12-\-7- repeat-Obviously not the right timing, Not drawing----|
---7-/-9--/-11-\-8-------all that!  They're the right notes---------------|
--------------------------------------------------------------------------|
--------------------------------------------------------------------------|

---7----8---10---5---7---8--10---12--14--(or 17)--------------------|
---8----9---12---7---8---9--12---14--15--(---15)--------------------|
--------------------------------------------------------------------|
--------------------------------------------------------------------|
--------------------------------------------------------------------|
--------------------------------------------------------------------|



End tune on a B, not a D!!!
Tap to rate this tab
 
# A B C D E F G H I J K L M N O P Q R S T U V W X Y Z