Song name
# A B C D E F G H I J K L M N O P Q R S T U V W X Y Z

Matchbox Twenty - I Will tab

Hey guys ever since I heard this song I've wanted to play it on guitar. Many thanks to
'Kris' who I learnt the basic part of the tab from, which was great but I noticed a
couple of minor errors so I wanted to post my version.
Note:The chorus is not what the guitar actually plays but I find it's better for just a 
voice with guitar.
-Also, the sixth and seventh notes of each bar (not tab) are played faster than the others.

Intro
e|---0---0----0---0---0----0---0---0----0----0-----0----------------|
B|-----2---2--------2---2--------2---2---------1-0-0----------------|
G|-2---------2--1---------1--2---------2--1--------1----------------|
D|------------------------------------------------------------------|
A|------------------------------------------------------------------|
E|------------------------------------------------------------------|


Verse 1
e|---0---0----0---0---0----0---0---0----0---0---0----0--------------|
B|-----2---2--------2---2--------2---2--------2---2-----------------|
G|-2---------2--1---------1--2---------2--1---------1--2------------|
D|------------------------------------------------------------------|
A|------------------------------------------------------------------|
E|------------------------------------------------------------------|


e|-0---0----0---0---0----0---0---0----0---0---0----0---0---0----0---0---0|
B|---0---0--------0---0--------0---0--------0---0--------2---2--------1-0|
G|---------2--1---------1--2---------2--1---------1--2---------2--2-----1|
D|-----------------------------------------------------------------------|
A|-----------------------------------------------------------------------|
E|-----------------------------------------------------------------------|

Verse 2
e|---0---0----0---0---0----0---0---0----0---0---0----0--------------|
B|-----2---2--------2---2--------2---2--------2---2-----------------|
G|-2---------2--1---------1--2---------2--1---------1--2------------|
D|------------------------------------------------------------------|
A|------------------------------------------------------------------|
E|------------------------------------------------------------------|


e|-0---0----0---0---0----0---0---0----0---0---0----0---0---0----0---0---0-------|
B|---0---0--------0---0--------0---0--------0---0--------2---2--------2---2-----|
G|---------2--1---------1--2---------2--1---------1--2---------2--2-------|-D|--|
A|------------------------------------------------------------------------------|
E|------------------------------------------------------------------------------|

Chorus
Use this picking pattern for each chord (Same as verse):
e|---#---#----#--|
B|-----#---#-----|
G|-#---------#---|
D|---------------|
A|---------------|
E|---------------|

Chords:
     D      E
And sleep away
            F#m
Dont let it go,
            A
Dont let it fade.
     D          E
Your dreams may cave,
            F#m
And falling apart
            A
Is the only way
   D     E
We go so low,
     D        E
When you dont know,

Chorus "Outro"
Start when he sings 'I will'

e|---0---0-------0---0-----0---0-------0---0-|
B|-----2---2-------2---------2---2-------2-0-|
G|-2---------2-1---------2---------2-1-----1-|
D|-------------------------------------------|
A|-------------------------------------------|
E|-------------------------------------------|

Verse 3- (Verse 2 style)

Chorus

Chorus "Outro" 2

e|---0---0-------0---0-----|
B|-----2---2-------2---2---|
G|-2---------2-2---------2-|
D|-------------------------|
A|-------------------------|
E|-------------------------|

Instrumental (Strum chords)
D E F#m A D E F#m A


   D     E
We go so low,
     D        E
When you dont know

Chorus "Outro" (first version)

Verse 4- (Verse 2 style)

Outro
Repeat first bar of verse three times, strumming last note.
Tap to rate this tab
# A B C D E F G H I J K L M N O P Q R S T U V W X Y Z