Song name
# A B C D E F G H I J K L M N O P Q R S T U V W X Y Z

Matchbox Twenty - Shes So Mean tab

Matchbox 20
She's so mean
Capo 2

Intro: G G D Cadd9

G                                       D          Cadd9
I kn-kn-know a girl, she gets what she wants all the time

G          D          Cadd9
'Cause she's fine

G                           D        Cadd9
 But for an angel, she's a hot hot mess

          G                             D          Cadd9
 Make you so blind              But you don't mind

               G                         D         Cadd9
 'Cause she's an uptown, get-around, anything-goes girl, girl

               G                         D         Cadd9
 She's a hardcore, candy-store, gimme-some-more girl, girl


[Chorus and Pre Chorus]

   G                D      Cadd9      G                D      Cadd9
e-----------------------------------------------------------------------|
B------3-----3----------3------3----------3-----3----------3------3-----|
G--------0-----0------2----------0----------0-----0------2----------0---|
D----0-----0-----0--0--------2-----2----0-----0-----0--0--------2-----2-|
A--------------------------3----------------------------------3---------|
E--3----------------------------------3---------------------------------|




[Pre Chorus:]
 She'll make you take her to the club, but then she leaves with her friends
 She likes to stay late at the party, 'cause the fun never ends
 And all her clothes are on the floor and all your records are scratched
 She's like a one-way ticket 'cause you can't come back!

[Chorus:]
 Saying yeah... you want her, but she's so mean
 (You’ll never let her go. Why don’t you let her go?)
 Yeah... you want her, but she's so mean
 (You’ll never let her go. Why don’t you let her go?)


           G                                        D         Cadd9
 You kn-kn-know that if you don’t shut your mouth, she’ll freak out

           G                                        D         Cadd9
 You better get your shit together, ‘cause she’s bringing you down now

           G                 D         Cadd9
 Yeah boy you better, you better

           G                            D         Cadd9
 'Cause she's an uptown, get-around, anything-goes girl, girl

           G                            D         Cadd9
 She's a hardcore, candy-store, gimme-some-more girl, girl


   G                D      Cadd9      G                D      Cadd9
e-----------------------------------------------------------------------|
B------3-----3----------3------3----------3-----3----------3------3-----|
G--------0-----0------2----------0----------0-----0------2----------0---|
D----0-----0-----0--0--------2-----2----0-----0-----0--0--------2-----2-|
A--------------------------3----------------------------------3---------|
E--3----------------------------------3---------------------------------|



 She’s got her wicked sense of humor, can’t believe what she says
 She drinks Bacardi in the morning ‘til it goes to her head
 And all you want is just to hold her, but she don’t go for that
 She has a hard time coming when she can’t hit back

[Chorus]

 Every now and then, she makes you just a little bit crazy
 She’ll turn a knife into your back and then she’s calling you baby, crazy

 She'll make you take her to the club, but then she leaves with her friends
 She likes to stay late at the party, 'cause the fun never ends
 And all her clothes are on the floor and all your records are scratched
 She's like a one-way ticket 'cause you can't come back!

[Chorus x2]
Tap to rate this tab
# A B C D E F G H I J K L M N O P Q R S T U V W X Y Z