Song name
# A B C D E F G H I J K L M N O P Q R S T U V W X Y Z

Matches - Clouds Crash tab

tune one half step down [Eb, Ab, Db, Gb, Bb, eb]
listen for picking


            "Clouds crash...."
Eb|--------------------------------------------------|
Bb|--------------------------------------------------|
Gb|---4---4---4---4---4---4---4---4---4---4---4---4--|
Db|--------------------------------------------------|
Ab|-------------------------------------2---3---3----|
Eb|-3---3---3---3---3---3---2---2---0----------------|

Eb|--------------------------------------------------|
Bb|--------------------------------------------------|
Gb|---4---4---4---4---4---4---4---4---4---4---4---4--|
Db|--------------------------------------------------|
Ab|-------------------------2---2---3---3---5---5----|
Eb|-3---3---2---2---0---0----------------------------|

               "oh oh oh whoa what a cieling..." 
Eb|--------------------------------------------------|
Bb|--------------------------------------------------|
Gb|---4---4---4-------4---4---4---4---4---4---4---4--|
Db|--------------------------------------------------|
Ab|-------------------------2---2---2---3---5---5----|
Eb|-3---3---3---3-2-0---0----------------------------|

Eb|--------------------------------------------------|
Bb|--------------------------------------------------|
Gb|---4---4---4---4---4---4---4---4------------------|
Db|--------------------------------------------------|
Ab|-------------------------3---3--------------------|
Eb|-3---3---2---2---0---0----------------------------|

   "after a boy..."
Eb|----------------------------------|
Bb|----------------------------------|
Gb|---4---4---4---4---4---4---4---4--|
Db|----------------------------------|
Ab|---------------------2---3---3----|
Eb|-3---3---2---2---0----------------|

Eb|--------------------------------------------------|
Bb|--------------------------------------------------|
Gb|---4---4---4---4---4---4---4---4---4---4---4---4--|
Db|--------------------------------------------------|
Ab|-------------------------2---2---3---3---5---5----|
Eb|-3---3---2---2---0---0----------------------------|

               "oh those days..." 
Eb|--------------------------------------------------|
Bb|--------------------------------------------------|
Gb|---4---4---4-------4---4---4---4---4---4---4---4--|
Db|--------------------------------------------------|
Ab|-------------------------2---2---2---3---5---5----|
Eb|-3---3---3---3-2-0---0----------------------------|

Eb|--------------------------------------------------|
Bb|--------------------------------------------------|
Gb|---4---4---4---4---4---4---4---4------------------|
Db|--------------------------------------------------|
Ab|-------------------------3---3--------------------|
Eb|-3---3---2---2---0---0----------------------------|

   "oh though how we quicken..."
Eb|----------------------------------|
Bb|----------------------------------|
Gb|---4---4---4---4---4---4---4---4--|
Db|----------------------------------|
Ab|---------------------2---3---3----|
Eb|-3---3---2---2---0----------------|

Eb|--------------------------------------------------|
Bb|--------------------------------------------------|
Gb|---4---4---4---4---4---4---4---4---4---4---4---4--|
Db|--------------------------------------------------|
Ab|-------------------------2---2---3---3---5---5----|
Eb|-3---3---2---2---0---0----------------------------|

   "skin again..."
Eb|--------------------------------------------------|
Bb|--------------------------------------------------|
Gb|---4---4-----------4---4---4---4---4---4---4---4--|
Db|--------------------------------------------------|
Ab|---------------------------------2---3---5---5----|
Eb|-3---3---3---3-3-3---3---0---0--------------------|

Eb|--------------------------------------------------|
Bb|--------------------------------------------------|
Gb|---4---4---4---4---4---4---4---4---4---4---4---4--|
Db|--------------------------------------------------|
Ab|-------------------------2---2---3---3---5---5----|
Eb|-3---3---2---2---0---0----------------------------|

               "oh oh clouds crash..."
Eb|--------------------------------------------------|
Bb|--------------------------------------------------|
Gb|---4---4-----------4---4---4---4---4---4---4---4--|
Db|--------------------------------------------------|
Ab|-------------------------2---2---2---3---5---5----|
Eb|-3---3---3---3-2-0---0----------------------------|

Eb|--------------------------------------------------|
Bb|--------------------------------------------------|
Gb|---4---4---4---4---4---4---4---4---4---4---4---4--|
Db|--------------------------------------------------|
Ab|-------------------------2---2---3---3---5---5----|
Eb|-3---3---2---2---0---0----------------------------|

Eb|-----------3--|
Bb|-----------3--|
Gb|---4---4---4--|
Db|--------------|
Ab|--------------|
Eb|-3---3--------|
Tap to rate this tab
# A B C D E F G H I J K L M N O P Q R S T U V W X Y Z