Song name
# A B C D E F G H I J K L M N O P Q R S T U V W X Y Z

Matches - Wake The Sun tab

Help us improve GuitareTab! Take a short survey!
---------------------------------------------------------------------------
			   WAKE THE SUN - The Matches
---------------------------------------------------------------------------

Tuning: E A C G B C

I mostly used videos on Youtube of Shawn playing this to transcribe it. There's two 
in the song, but I wrote it so that you can play it solo. It sounds almost exactly the same.

intro:

C|------+12-----------+5-----------+12-------------+5-----------+12--------|
B|-------------------------------------------------------------------------|
G|----------+12-----------+5------------+12------------+5------------+12---|
C|--+12-----------+5-----------+12------------+5------------+12------------|
A|-------------------------------------------------------------------------|
E|-------------------------------------------------------------------------|

C|-----+5--------|
B|---------------|
G|----------+5---|
C|--+5-----------|
A|---------------|
E|---------------|

verse:

C|-----0----------0------------0------------0------------0----------0-----|
B|------------------------------------------------------------------------|
G|--------0----------0------------0------------0-----------0-----------0--|
C|--0----------0-------------------------0------------0-------------------|
A|--------------------------0------------------------------------0--------|
E|------------------------------------------------------------------------|

C|-----0---------0------------0---------|
B|--------------------------------------|
G|--------0----------0------------0-----|
C|---5--------5------------5------------|
A|--------------------------------------|
E|--------------------------------------|

chorus:

C|-------7----------7-----------7------------------0-------0-----0---------|
B|-------------------------------------------------------------------------|
G|----------7-----------5-----------5----(X2)--------0-------0-----0-------|
C|----0---------0------------0-------------------5-------5------5-----(X2)-|
A|-------------------------------------------------------------------------|
E|-------------------------------------------------------------------------|

C|------+5-----------+12----------+5--------|
B|------------------------------------------|
G|----------+5-----------+12-----------+5---|
C|--+5-----------+12----------+5------------|
A|------------------------------------------|
E|------------------------------------------|

repeat verse + chorus


| /  slide up
| \  slide down
| h  hammer-on
| p  pull-off
| ~  vibrato
| +  harmonic
| x  Mute note
============================================================================
Related for Wake The Sun tab