Song name
# A B C D E F G H I J K L M N O P Q R S T U V W X Y Z

Matches - Yankee In A Chip Shop tab

----------------------------------------------------------------------------
		    YANKEE IN A CHIP SHOP - The Matches
----------------------------------------------------------------------------
Tabbed by: Neil!
Email:skrlx_@hotmail.com

Easy song to play. There's two guitars in the song, but this sounds fine because for the 
part they play this together (I think?)

intro/chorus:
|------------------------------------|
|------------------------------------|
|------------------------------------|
|--3-3-4-5-5-5-5-5-5-5-5-5-5-5-5-5---|      Annnnnnd repeat...
|--1-1-2-3-3-3-3-3-3-3-3-3-3-3-3-3---|
|------------------------------------|
         . . . . . . . . . . . . .

verse:
|----------------------------------------------------------------|
|--0-0-0-1-1-1-1-0-0-0-0-1-1-1-1-0-0-0-0-1-1-1-1-0-0-0-0-1-1-1-1-|
|----------------------------------------------------------------|
|----------------------------------------------------------------|
|----------------------------------------------------------------|
|----------------------------------------------------------------|
   . . . . . . . . . . . . . . . . . . . . . . . . . . . . . . .

solo-thing:
|--5-5-3-3-----7-7-7-7---|
|--5-5-5-5-----5-5-5-5---|
|------------------------|    And while that's going the other guitar
|------------------------|    is strumming the E string
|------------------------|
|------------------------|
Tap to rate this tab
 
# A B C D E F G H I J K L M N O P Q R S T U V W X Y Z