Song name
# A B C D E F G H I J K L M N O P Q R S T U V W X Y Z

Matches - Between Halloweens tab

Help us improve GuitareTab! Take a short survey!
Between Halloweens Intro. This is 95% accurate. Standard tuning.




E  :--14-------14--------14-|---13-------13-------13---|
B  :-----11-------11--------|------11-------11---------|
G  :--------11-------11-----|11-------11-------11----11|
D  :------------------------|--------------------------|
A  :------------------------|--------------------------|
E  :------------------------|--------------------------|

E  :12-------12--6------6|h7-----7--7-----7|-----7---7-h8-----|
B  :---11----------7-----|---7--------7----|-7------------7---|
G  :------11---------8---|-----8--------8--|---8---8--------8-|
D  :---------------------|-----------------|------------------|
A  :---------------------|-----------------|------------------|
E  :---------------------|-----------------|------------------|

E  :8-----8---7-----6|-----4-----4----|-4-----4--------|
B  :--7---------7----|-7-----6-----6--|---6-----6------|
G  :----8---8-----8--|---8-----6-----6|-----6-----6----|
D  :-----------------|----------------|----------------|
A  :-----------------|----------------|----------------|
E  :-----------------|----------------|----------------|
Related for Between Halloweens tab