Song name
# A B C D E F G H I J K L M N O P Q R S T U V W X Y Z

Matches - Point Me Towards The Morning tab

Help us improve GuitareTab! Take a short survey!
This is a great song by a great bad.  Im still working on this.  Its my first TAB so 
with me.  This is the lead guitar intro and some of the verse.

Standad Tuning


Intro:

E---------------------------------------|-------------------|
B---------------------------------------|-------------------|
G--9-9-X-7-5------14-14-14-14-14-14-14--|-------------------|
D--X-X-X-X-X------X--X--X--X--X--X--X---|--7-7-7-9-9-9------|
A--7-7-X-5-3------12-12-12-12-12-12-12--|--7-7-7-9-9-9------|
E---------------------------------------|--5-5-5-7-7-7------|

Intro (con't)

E-----------------------------------------|
B-----------------------------------------|
G--------------------------12h14p12h1p12--|
D--10h12p10h12p10h12p10-------------------|   (I think this might be wrong)
A-----------------------------------------|
E-----------------------------------------|

Verse 1

E----------------------------------------------------|
B----------------------------------------------------|
G--17-17-17-17-14-14-14-14-21-21-21-21-17-17-17-17---|
D--X--X--X--X--X--X--X--X--X--X--X--X--X--X--X--X----|
A--15-15-15-15-12-12-12-12-19-19-19-19-15-15-15-15---|
E----------------------------------------------------|


Verse 1 (con't)
E-----------------------------------------|
B-----------------------------------------|
G--------------------------12h14p12h1p12--|
D--10h12p10h12p10h12p10-------------------|
A-----------------------------------------|
E-----------------------------------------|


Thats all I've got so far.  Email me with corrections.

Wolfpack182@yahoo.com
Related for Point Me Towards The Morning tab