Song name
# A B C D E F G H I J K L M N O P Q R S T U V W X Y Z

Matches - Darkness Rising tab

-------------------------------------------------------------------------------
			     Darkness Rising- The Matches
-------------------------------------------------------------------------------
Tabbed by: Skaliveson

This song is normally played on piano (obviously). I tabbed this out using  a 
of listening and youtube videos of The Matches shows. It isn't 100% right, but it 
sounds mostly ok.

Tuning:
Intro:
e|---------------------------------------------------------------------------|
B|---6----6----6----6----6----6----6----6------------------------------------|
G|---7----7----7----7----7----7----7----7------------------------------------|
D|-----7----7----7----7----7----7----7----7----------------------------------|
A|---------------------------------------------------------------------------|
E|---------------------------------------------------------------------------|

Verse (1st type) (AKA 'Come, come' sections)
e|------------------------5----5----5----------------------------------------|
B|----6----6----8----8----6----6----6--2--3--4-------------------------------|
G|----7----7----9----9------7----7-------------------------------------------|
D|------7----7----9----9-----------------------------------------------------|
A|---------------------------------------------------------------------------|
E|---------------------------------------------------------------------------|

e|------------------------7----7----7----7----10--10--8---8---6--6-----------|
B|----6----6----8----8----8----8----8----8----11--10--8---8---7--7-----------|
G|----7----7----9----9------9----9------------12--12--10--10--8--8-----------|
D|------7----7----9----9----------------------12--12--10--10--8--8-----------|
A|---------------------------------------------------------------------------|
E|---------------------------------------------------------------------------|

e|---------------------------------------------4-----------------------------|
B|---5----5----7----7----3----3----3----3-----5------------------------------|
G|---6----6----8----8----4----4----4----4----6-------------------------------|
D|-----6----6----8----8----4----4----2----2----------------------------------|
A|---------------------------------------------------------------------------|
E|---------------------------------------------------------------------------|

Verse (2nd type) (AKA "I'll be here" sections)
e|---------------------------------------------------------------------------|
B|---1----1----1----1----1----1----1----1------------------------------------|
G|---2----2----2----2----2----2----2----2------------------------------------|
D|-----2----2----2----2----2----2----2----2----------------------------------|
A|---------------------------------------------------------------------------|
E|---------------------------------------------------------------------------|

e|-------------------------------------------2----2--------------------------|
B|---3----3----3----3----3----3----5----5----5----5--------------------------|
G|---2----2----2----2----2----2----5----5------4----4------------------------|
D|-----2----2----2----2----2----2----5----5----------------------------------|
A|---------------------------------------------------------------------------|
E|---------------------------------------------------------------------------|

e|---3----3----3----3----3----3----3----3------------------------------------|
B|---5----5----5----5----5----5----5----5------------------------------------|
G|-----5----5----5----5----5----5----5----5----------------------------------|
D|---------------------------------------------------------------------------|
A|---------------------------------------------------------------------------|
E|---------------------------------------------------------------------------|

Repeat verses in the order: 1, 2, 1, 2, 1, 2, then play:

Bridge/Outro (AKA "Darkness rising" section)
e|-----------------------------------------------------------------------------|
B|----5-----3-----2-----3--5--6--1---------------------------------------------|
G|----6-----4-----3-----4--6--7--2------4-----2--------------------------------|
D|----6-----4-----3-----4--6--7--2------6-----3--------------------------------| x3
A|----4--4--2--2--1--0--2--4--5--0--0---6-----3--------------------------------|
E|--------------------------------------4--4--1--2--5--4--2--1-----------------|

On "I will not disappear" play:
e|--------------------------------------------------------------------------|
B|---5----3----1----1---------6----4----6--6--6--6--6--6--8--8--9--9--9--9--|
G|---6----4----2----2---------6----4----6--6--6--6--6--6--8--8--9--9--9--9--|
D|---6----4----2----2---------6----4----6--6--6--6--6--6--8--8--9--9--9--9--|
A|---4----2----0----0---------4----2----4--4--4--4--4--4--6--6--7--7--7--7--|
E|--------------------------------------------------------------------------|


| /  slide up
| \  slide down
| h  hammer-on
| p  pull-off
| ~  vibrato
| +  harmonic
| x  Mute note
===============================================================================
Tap to rate this tab
# A B C D E F G H I J K L M N O P Q R S T U V W X Y Z