Guitaretab - guitar tabs
Song name
# A B C D E F G H I J K L M N O P Q R S T U V W X Y Z

Matches - Jack Slap Cheer tab

Band- The Matches
Song- Jack Slap Cheer

   Ok... This is the rythm part. The lead I haven't figued it out yet but i will soon. 
the way, this is my first tab.


*   Palm mute
^   Quick note
~   Let Ring

Normal tuning(EAGDBE)

(Intro)

E-----------------------------------|
B-----------------------------------|
D-6-6-6-6---------4-4-4-4-----------|
G-6-6-6-6-6-6-6-6-4-4-4-4-4-4-4-4---|  x3
A-4-4-4-4-6-6-6-6-2-2-2-2-4-4-4-4---|
E---------4-4-4-4---------2-2-2-2---|
  * * * * * * * * * * * * * * * *


E-------------------------         ---------|
B-------------------------         ---------|
D-6-6-6-6---------4-4-4-4-         ---------|
G-6-6-6-6-6-6-6-6-4-4-4-4-         -4-4-4-4-| (Do this when they say 1,2,3,4)
A-4-4-4-4-6-6-6-6-2-2-2-2-         -4-4-4-4-|
E---------4-4-4-4---------         -2-2-2-2-|
  * * * * * * * * * * * *           ^ ^ ^ ^

(Verse)

E-------------------------------------------------------------------|
B-------------------------------------------------------------------|
G-6-6-6-6-6-6-6-6-----------------4-4-4-4-4-4-4-4-------------------|
D-6-6-6-6-6-6-6-6-6-6-6-6-6-6-6-6-4-4-4-4-4-4-4-4-4-4-4-4-4-4-4-4---|  x4
A-4-4-4-4-4-4-4-4-6-6-6-6-6-6-6-6-2-2-2-2-2-2-2-2-4-4-4-4-4-4-4-4---|
E-----------------4-4-4-4-4-4-4-4-----------------2-2-2-2-2-2-2-2---|

(Chorus)

E---------------------------------------------|
B---------------------------------------------|
G-6-------------------------------------------|
D-6----6----4-4-4-4-4-4-4-4-6-6-6-6-6-6-6-6---|  x2
A-4----6----4-4-4-4-4-4-4-4-6-6-6-6-6-6-6-6---|
E------4----2-2-2-2-2-2-2-2-4-4-4-6-6-6-6-6---|
  ^    ^
[ Tab from: http://www.guitaretab.com/m/matches/48974.html ]
E-----------------------------------------------------------------|
B-----------------------------------------------------------------|
G-6-6-6-6-6-6-6-6-------------------------------------------------|
D-6-6-6-6-6-6-6-6-8-8-8-8-8-8-8-8-4-4-4-4-4-4-4-4-6-6-6-6-6-6-6-6-|
A-4-4-4-4-4-4-4-4-8-8-8-8-8-8-8-8-4-4-4-4-4-4-4-4-6-6-6-6-6-6-6-6-|
E-----------------6-6-6-6-6-6-6-6-2-2-2-2-2-2-2-2-4-4-4-4-4-4-4-4-|

E------------|
B------------|
G-6-------6~-|
D-6---6---6~-|
A-4---6---4~-|
E-----4------|
  ^   ^

Repeat Intro for the first break down

Then repeat verse then chours


 (Second Breakdown)-this is when they start clapping

-wait a while until guitars come in.-

E-------------------------|
B-------------------------|
G-6-6---------------------|
D-6-6---6-6---4-4---4-4---|  x3
A-4-4---6-6---4-4---4-4---|
E-------4-4---2-2---2-2---|

E-------------------------------------------|
B-------------------------------------------|
G-6-6---------------------------------------|
D-6-6---6-6---4-4-4-4-4-4-4-6-6-6-6-6-6-6-6-|
A-4-4---6-6---4-4-4-4-4-4-4-6-6-6-6-6-6-6-6-|
E-------4-4---2-2-2-2-2-2-2-4-4-4-4-4-4-4-4-|


(Ending)

E-------------------------------------------------------------------|
B-------------------------------------------------------------------|
G-6-6-6-6-6-6-6-6---------------------------------------------------|
D-6-6-6-6-6-6-6-6-6-6-6-6-6-6-6-6-4-4-4-4-4-4-4-4-6-6-6-6-6-6-6-6---|  x2
A-4-4-4-4-4-4-4-4-6-6-6-6-6-6-6-6-4-4-4-4-4-4-4-4-6-6-6-6-6-6-6-6---|
E-----------------4-4-4-4-4-4-4-4-2-2-2-2-2-2-2-2-4-4-4-4-4-4-4-4---|

E-----------------------------------------------------------------|
B-----------------------------------------------------------------|
G-6-6-6-6-6-6-6-6-------------------------------------------------|
D-6-6-6-6-6-6-6-6-8-8-8-8-8-8-8-8-4-4-4-4-4-4-4-4-6-6-6-6-6-6-6-6-|
A-4-4-4-4-4-4-4-4-8-8-8-8-8-8-8-8-4-4-4-4-4-4-4-4-6-6-6-6-6-6-6-6-|
E-----------------6-6-6-6-6-6-6-6-2-2-2-2-2-2-2-2-4-4-4-4-4-4-4-4-|

E------------|
B------------|
G-6-------6~-|
D-6---6---6--|   (The End)
A-4---6---4~-|
E-----4------|
  ^   ^

Thank you
Related for Jack Slap Cheer tab
×
Best way to learn
"Jack Slap Cheer"