Song name
# A B C D E F G H I J K L M N O P Q R S T U V W X Y Z

Matches - December Is For Cynics tab

Tabbed by the Jackal

Standard Tuning

Intro Part 1
e|------------------------------------------------------------------------------|
B|------------------------------------------------------------------------------|
G|-------5555----5555-4444------------------------------------------------------|
D|--7777-xxxx----xxxx-xxxx------------------------------------------------------|
A|--xxxx-xxxx----xxxx-xxxx------------------------------------------------------|
E|--5555-5555----3333-3333------------------------------------------------------|

Intro Part 2
e|-----------------------------------------------------------------------------|
B|-10--------------------------------------------------------------------------|
G|----9-10----9----------------------------------------------------------------|
D|---------12---10-12-9--------------------------------------------------------|
A|----------------------12-10-12/-7-----7-8--10--------------------------------|
E|-----------------------------------------------------------------------------|

Middle of 1st Verse (Palm muted) (whoa whoawhoa)
e|---------------------------------------------------------------------------|
B|---------------------------------------------------------------------------|
G|-9-99-x999-10-1010-x101010-7-77-x777-12xx-10xx-7-77-x777-10-1010-x101010-7-|
D|-7-77-x777-10-1010-x101010-5-55-x555-10xx-10xx-7-77-x777-10-1010-x101010-5-|
A|---------------------------------------------------------------------------|
E|---------------------------------------------------------------------------|

End of the 1st verse
e|------------------------------------------------------------------------------|
B|------------------------------------------------------------------------------|
G|-------5555----5555-4444------------------------------------------------------|
D|--7777-xxxx----xxxx-xxxx------------------------------------------------------|
A|--xxxx-xxxx----xxxx-xxxx------------------------------------------------------|
E|--5555-5555----3333-3333------------------------------------------------------|

This Part is played just as the one above ends.
e|-----------------------------------------------------------------------------|
B|-----------------------------------------------------------------------------|
G|-----------------------------------------------------------------------------|
D|-----------------------------------------------------------------------------|
A|-----------------------------------------------------------------------------|
E|-1---1-0---0-5---5-8-3---1---1-0---0-5----7----------------------------------|

First Chorus
e|-----------------------------------------------------------------------------|
B|-----------------------------------------------------------------------------|
G|-5-------------------5-------------------5-------------------5---------------|
D|-5-3------5----------5-3------5----------5-3------5----------5-3-------5--5--|
A|-3-3------5----------3-3------5----------3-3------5----------3-3-------5--5--|
E|---1------3------------1------3------------1------3------------1-------3--3--|


When he says : "and snopes.com says if you play Strawberry Fields..."
Play the two intro parts at the same time
then end the 2nd verse with:
e|-----------------------------------------------------------------------------|
B|-----------------------------------------------------------------------------|
G|-----------------------------------------------------------------------------|
D|-----------------------------------------------------------------------------|
A|-----------------------------------------------------------------------------|
E|-1-----1-0-----0-5-5-5-5-7-7-7-7---------------------------------------------|

2nd Chorus
e|-----------------------------------------------------------------------------|
B|-----------------------------------------------------------------------------|
G|-5-------------------5-------------------5-------------------5---------------|
D|-5-3------5----------5-3------5----------5-3------5----------5-3-------5-----|
A|-3-3------5----------3-3------5----------3-3------5----------3-3-------5-----|
E|---1------3------------1------3------------1------3------------1-------3-----|

For the Bridge they play Intro Part 2 quietly once and then louder while picking some of 
notes multiple times.
Then they play this:
e|-----------------------------------------------------------------------------|
B|-----------------------------------------------------------------------------|
G|-------5555---------5555---------5555----------------------------------------|
D|--7777-xxxx----7777-xxxx----7777-xxxx----------------------------------------|
A|--xxxx-xxxx----xxxx-xxxx----xxxx-xxxx----------------------------------------|
E|--5555-5555----5555-5555----5555-5555----------------------------------------|

Then the go into the part with just drums and singing and they play:
e|--------------|
B|--------------|
G|-5------------|
D|-5-3----------|
A|-3-3----------|
E|---1----------| once and then they sing some more before playing this:

e|-----------------------------------------------------------------------------|
B|-----------------------------------------------------------------------------|
G|-5---------------------x5---------------------x5---------------------x5------------|
D|-5-3---5---x5----------x5-3---5---x5----------x5-3---5---x5----------x5-3----|
A|-3-3---5---x5----------x3-3---5---x5----------x3-3---5---x5----------x3-3----|
E|---1---5---x3-------------1---3---x3------------1---3---x3------------1------|
ending continued
e|----------------|
B|----------------|
G|----------------|
D|-3-3-5-5-5-5----|
A|-3-3-5-5-5-5----|
E|-1-1-3-3-3-3----|
It's to easy being great

Merry Christmanakukwanzah!
Tap to rate this tab
# A B C D E F G H I J K L M N O P Q R S T U V W X Y Z