Song name
# A B C D E F G H I J K L M N O P Q R S T U V W X Y Z

Matches - Shoot Me In The Smile tab

This is the rythym part. not really sure  if its right but it sounds like it is.

x-mute string
~-let ring
*-bend string

"Come bring a trend"
-----------------------------------------------------------[]
-----------------------------------------------------------[]
---6--77------6--77----------------------------------------[]
-4-6--77----4-6--77----------------------------------------[](X2)
-4-4--55----4-4--55----------------------------------------[]
-2----------2----------------------------------------------[]

"Come hungry, come shakin"
-----------------------------------------------------------[]
-----------------------------------------------------------[]
777-999-777-999-99999999-----------------------------------[]
777-999-777-999-99999999-----------------------------------[]
555-777-555-777-77777777-----------------------------------[]

"Now That's a face"
XX---------------------------------------------------------[]
XX---------------------------------------------------------[]
XX----6--77------6--77-------------------------------------[]
XX--4-6--77----4-6--77-------------------------------------[](X2)
XX--4-4--55----4-4--55-------------------------------------[]
XX--2----------2-------------------------------------------[]

"Keep waist fit, no feeding"
-----------------------------------------------------------[]
-----------------------------------------------------------[]
777-999-777-999-99999999-----------------------------------[]
777-999-777-999-99999999-----------------------------------[]
555-777-555-777-77777777-----------------------------------[]

Chorus
"Shoot me, shoot me..."
-5-4-2-0--(some weird effect)------------------------------[]
--------------------------------------------66666666-------[]
-------------------------------44--55555555-66666666-------[]
-------------------------------44--55555555-44444444-------[]
-------------------------------22--33333333----------------[]

"I'm goin' out of style"
-----------------------------------------------------------[]
-----------------------------------------------------------[]
4-2-4-2-4-7-6-2-4-2-4--------------------------------------[]
4-2-4-2-4-7-6-2-4-2-4--------------------------------------[]
2-0-2-0-2-5-4-0-2-0-2--------------------------------------[]


"Shoot me, shoot me..."
-5-4-2-0--(some weird effect)------------------------------[]
--------------------------------------------66666666-------[]
-------------------------------44--55555555-66666666-------[]
-------------------------------44--55555555-44444444-------[]
-------------------------------22--33333333----------------[]

"I'm goin' out of style"
-----------------------------------------------------------[]
-----------------------------------------------------------[]
4-2-4-2-4-7-6-2-4-2-4--------------------------------------[]
4-2-4-2-4-7-6-2-4-2-4--------------------------------------[]
2-0-2-0-2-5-4-0-2-0-2--------------------------------------[]

Verse 2
Just Bass drums and vocals until
"I bat these eyes"
-----------------------------------------------------------[]
99999999---------------------------------------------------[]
99999999---------------------------------------------------[]
77777777---------------------------------------------------[]
-----------------------------------------------------------[]


"I bat them black"
XX---------------------------------------------------------[]
XX---------------------------------------------------------[]
XX---6--77------6--77--------------------------------------[]
XX-4-6--77----4-6--77--------------------------------------[](X2)
XX-4-4--55----4-4--55--------------------------------------[]
XX-2----------2--------------------------------------------[]

"Like a bakesale, i'm going stale"
-----------------------------------------------------------[]
777-999-777-999-99999999-----------------------------------[]
777-999-777-999-99999999-----------------------------------[]
555-777-555-777-77777777-----------------------------------[]
-----------------------------------------------------------[]

Chorus
"Shoot me, shoot me..."
-5-4-2-0--(some weird effect)------------------------------[]
--------------------------------------------66666666-------[]
-------------------------------44--55555555-66666666-------[]
-------------------------------44--55555555-44444444-------[]
-------------------------------22--33333333----------------[]

"I'm goin' out of style"
-----------------------------------------------------------[]
-----------------------------------------------------------[]
4-2-4-2-4-7-6-2-4-2-4--------------------------------------[]
4-2-4-2-4-7-6-2-4-2-4--------------------------------------[]
2-0-2-0-2-5-4-0-2-0-2--------------------------------------[]

"Shoot me, shoot me..."
-5-4-2-0--(some weird effect)------------------------------[]
--------------------------------------------66666666-------[]
-------------------------------44--55555555-66666666-------[]
-------------------------------44--55555555-44444444-------[]
-------------------------------22--33333333----------------[]
"STYLE!!"                wah..................
-----------------------------------------------------------[]
-----------------------------------------------------------[]
4-2-4-2-4-7-6-2-4-2-4----4-4-4-2-4-7-6-2-4-2-4-------------[]
4-2-4-2-4-7-6-2-4-2-4----4-2-4-2-4-7-6-2-4-2-4-------------[]
2-0-2-0-2-5-4-0-2-0-2----2-0-2-0-2-5-4-0-2-0-2-------------[]

"WHOOP WHOOP"
-----------------------------------------------------------[]
--7-7-7-7~--7-7-7-7----------------------------------------[]
-----------------------------------------------------------[]
-----------------------------------------------------------[]
-----------------------------------------------------------[]

solo(i know its not right or finished so dont leave me any comments saying that.)
--------7------7-9-10--13*-13*-13*~-12-10-7-9-10--12-10-7-9-10--12--14--16~[]
-7-9-10---9-10-------------------------------------------------------------[]
---------------------------------------------------------------------------[]
---------------------------------------------------------------------------[]
---------------------------------------------------------------------------[]

sorry but thats all i got of it so far.

when he whispers "Shoot me, shoot me..."
(clean strumming)
-----------------------------------------------------------[]
-----------------------------------------------------------[]
7-7-77-7-7-77-7-7-4-4-44-4-4-44-4-4------------------------[]
7-7-77-7-7-77-7-7-4-4-44-4-4-44-4-4------------------------[]
5-5-55-5-5-55-5-5-2-2-22-2-2-22-2-2------------------------[]


chorus
-----------------------------------------------------------[]
--------------------------------------------66666666-------[]
-------------------------------44--55555555-66666666-------[]
-------------------------------44--55555555-44444444-------[]
-------------------------------22--33333333----------------[]
then
-----------------------------------------------------------[]
-----------------------------------------------------------[]
77777777---99999999----------------------------------------[]
55555555---77777777----------------------------------------[]
-----------------------------------------------------------[]

"Im goin out of style"
-----------------------------------------------------------[]
-----------------------------------------------------------[]
-77777777---44444444---------------------------------------[]
-77777777---44444444---------------------------------------[]
-55555555---22222222---------------------------------------[]

"Come come skinny skinny.."
-----------------------------------------------------------[]
-----------------------------------------------------------[]
4-2-4-2-4-7-6-2-4-2-4--------------------------------------[]
4-2-4-2-4-7-6-2-4-2-4--------------------------------------[]
2-0-2-0-2-5-4-0-2-0-2--------------------------------------[]

Then
-----------------------------------------------------------[]
6666666666666666-------------------------------------------[]
6666666666666666--44444444444444-5-------------------------[]
4444444444444444--44444444444444-5-------------------------[]
------------------22222222222222-3-------------------------[]

"im going out of style"
-----------------------------------------------------------[]
-----------------------------------------------------------[]
-55555555--44444444----------------------------------------[]
-55555555--44444444----------------------------------------[]
-33333333--22222222----------------------------------------[]

Outro("Go Come Skinny")
-----------------------------------------------------------[]
-----------------------------------------------------------[]
-555----555----5---5---------------------------------------[]
-555----555----5---5---------------------------------------[]
-333----333----3---3---------------------------------------[

comment on how it was
Tap to rate this tab
 
# A B C D E F G H I J K L M N O P Q R S T U V W X Y Z