Song name
# A B C D E F G H I J K L M N O P Q R S T U V W X Y Z

Matches - Borderline Creep tab

Help us improve GuitareTab! Take a short survey!
"
Shawn Harris (Rythym)

Intro

E|----------------|----------------|
B|----------------|----------------|
G|-5-5-5-5-3-3-3-3|----------------|
D|-5-5-5-5-3-3-3-3|-6-6-6-6-5-5-5-3|
A|-3-3-3-3-1-1-1-1|-6-6-6-6-5-5-5-3|
E|----------------|-4-4-4-4-3-3-3-1|

Verse

E|----------------|----------------|----------------|----------------|
B|----------------|----------------|----------------|----------------|
G|----------------|----------------|----------------|----------------|
D|-3-3-3-3-3-3-3-3|-5-5-5-5-5-5-5-5|-2-2-2-2-2-2-2-2|-3-3-3-3-3-3-3-3|
A|-3-3-3-3-3-3-3-3|-5-5-5-5-5-5-5-5|-2-2-2-2-2-2-2-2|-3-3-3-3-3-3-3-3|
E|-1-1-1-1-1-1-1-1|-3-3-3-3-3-3-3-3|-0-0-0-0-0-0-0-0|-1-1-1-1-1-1-1-1|
   * *     * *      * *     * *      * *     * *      * *     * *

E|----------------|----------------|----------------|----------------|
B|----------------|----------------|----------------|----------------|
G|----------------|----------------|-5-5-5-5-5-5-5-5|-5--------------|
D|-3-3-3-3-3-3-3-3|-5-5-5-5-5-5-5-5|-5-5-5-5-5-5-5-5|-5--------------|
A|-3-3-3-3-3-3-3-3|-5-5-5-5-5-5-5-5|-3-3-3-3-3-3-3-3|-3--------------|
E|-1-1-1-1-1-1-1-1|-3-3-3-3-3-3-3-3|----------------|----------------|
   * *     * *      * *     *        * *     * *

E|----------------|----------------|----------------|----------------|
B|----------------|----------------|----------------|----------------|
G|----------------|----------------|----------------|----------------|
D|-3-3-3-3-3-3-3-3|-5-5-5-5-5-5-5-5|-2-2-2-2-2-2-2-2|-3-3-3-3-3-3-3-3|
A|-3-3-3-3-3-3-3-3|-5-5-5-5-5-5-5-5|-2-2-2-2-2-2-2-2|-3-3-3-3-3-3-3-3|
E|-1-1-1-1-1-1-1-1|-3-3-3-3-3-3-3-3|-0-0-0-0-0-0-0-0|-1-1-1-1-1-1-1-1|
   * *     * *      * *     * *      * *     * *      * *     * *

E|----------------|----------------|----------------|----------------|
B|----------------|----------------|----------------|----------------|
G|----------------|----------------|-5-5-5-5-3-3-3-3|---------------5|
D|-3-3-3-3-3-3-3-3|-5-5-5-5-5-5-5-5|-5-5-5-5-3-3-3-3|-6-6-6-6-5-5-5-5|
A|-3-3-3-3-3-3-3-3|-5-5-5-5-5-5-5-5|-3-3-3-3-1-1-1-1|-6-6-6-6-5-5-5-3|
E|-1-1-1-1-1-1-1-1|-3-3-3-3-3-3-3-3|----------------|-4-4-4-4-3-3-3--|
   * *     * *      * *     * *

Chorus

E|----------------|----------------|----------------|----------------|
B|----------------|----------------|----------------|----------------|
G|----------------|----------------|----------------|----------------|
D|----------------|----------------|----------------|----------------|
A|----------------|----------------|----------------|----------------|
E|----------------|----------------|----------------|----------------|

E|----------------|----------------|----------------|----------------|
B|----------------|----------------|----------------|----------------|
G|----------------|----------------|----------------|----------------|
D|----------------|----------------|----------------|---------5-5-5-5|
A|----------------|----------------|----------------|---------5-5-5-5|
E|----------------|----------------|----------------|---------3-3-3-3|

E|----------------|----------------|----------------|----------------|
B|----------------|----------------|----------------|----------------|
G|-5-5-5-5-5-5-5-5|-5-5-5-5-5-5-5-5|----------------|----------------|
D|-5-5-5-5-5-5-5-5|-5-5-5-5-5-5-5-5|-3-3-3-3-3-3-3-3|-5-5-5-5-5-5-5-5|
A|-3-3-3-3-3-3-3-3|-3-3-3-3-3-3-3-3|-3-3-3-3-3-3-3-3|-5-5-5-5-5-5-5-5|
E|----------------|----------------|-1-1-1-1-1-1-1-1|-3-3-3-3-3-3-3-3|

E|----------------|----------------|----------------|----------------|
B|----------------|----------------|----------------|----------------|
G|-5-5-5-5-5-5-5-5|-5-5-5-5-5-5-5-5|----------------|----------------|
D|-5-5-5-5-5-5-5-5|-5-5-5-5-5-5-5-5|-3-3-3-3-3-3-3-3|-5-5-5-5-5-5-5-5|
A|-3-3-3-3-3-3-3-3|-3-3-3-3-3-3-3-3|-3-3-3-3-3-3-3-3|-5-5-5-5-5-5-5-5|
E|----------------|----------------|-1-1-1-1-1-1-1-1|-3-3-3-3-3-3-3-3|

Verse

E|----------------|----------------|----------------|----------------|
B|----------------|----------------|----------------|----------------|
G|----------------|----------------|----------------|----------------|
D|-3-3-3-3-3-3-3-3|-5-5-5-5-5-5-5-5|-2-2-2-2-2-2-2-2|-3-3-3-3-3-3-3-3|
A|-3-3-3-3-3-3-3-3|-5-5-5-5-5-5-5-5|-2-2-2-2-2-2-2-2|-3-3-3-3-3-3-3-3|
E|-1-1-1-1-1-1-1-1|-3-3-3-3-3-3-3-3|-0-0-0-0-0-0-0-0|-1-1-1-1-1-1-1-1|
   * *     * *      * *     * *      * *     * *      * *     * *

E|----------------|----------------|----------------|----------------|
B|----------------|----------------|----------------|----------------|
G|----------------|----------------|-5-5-5-5-5-5-5-5|-5-5-5-5-5-5-5-5|
D|-3-3-3-3-3-3-3-3|-5-5-5-5-5-5-5-5|-5-5-5-5-5-5-5-5|-5-5-5-5-5-5-5-5|
A|-3-3-3-3-3-3-3-3|-5-5-5-5-5-5-5-5|-3-3-3-3-3-3-3-3|-3-3-3-3-3-3-3-3|
E|-1-1-1-1-1-1-1-1|-3-3-3-3-3-3-3-3|----------------|----------------|
   * *     * *      * *     * *      * *     * *      * *   * *

E|----------------|----------------|----------------|----------------|
B|----------------|----------------|----------------|----------------|
G|----------------|----------------|----------------|----------------|
D|-3-3-3-3-3-3-3-3|-5-5-5-5-5-5-5-5|-2-2-2-2-2-2-2-2|-3-3-3-3-3-3-3-3|
A|-3-3-3-3-3-3-3-3|-5-5-5-5-5-5-5-5|-2-2-2-2-2-2-2-2|-3-3-3-3-3-3-3-3|
E|-1-1-1-1-1-1-1-1|-3-3-3-3-3-3-3-3|-0-0-0-0-0-0-0-0|-1-1-1-1-1-1-1-1|
   * *     * *      * *     * *      * *     * *      * *     * *

E|----------------|----------------|----------------|----------------|
B|----------------|----------------|----------------|----------------|
G|----------------|----------------|-5-5-5-5-3-3-3-3|---------------5|
D|-3-3-3-3-3-3-3-3|-5-5-5-5-5-5-5-5|-5-5-5-5-3-3-3-3|-6-6-6-6-5-5-5-5|
A|-3-3-3-3-3-3-3-3|-5-5-5-5-5-5-5-5|-3-3-3-3-1-1-1-1|-6-6-6-6-5-5-5-3|
E|-1-1-1-1-1-1-1-1|-3-3-3-3-3-3-3-3|----------------|-4-4-4-4-3-3-3--|
   * *     * *      * *     * *

Chorus

E|----------------|----------------|----------------|----------------|
B|----------------|----------------|----------------|----------------|
G|----------------|----------------|----------------|----------------|
D|----------------|----------------|----------------|----------------|
A|----------------|----------------|----------------|----------------|
E|----------------|----------------|----------------|----------------|

E|----------------|----------------|----------------|----------------|
B|----------------|----------------|----------------|----------------|
G|----------------|----------------|----------------|----------------|
D|----------------|----------------|----------------|---------5-5-5-5|
A|----------------|----------------|----------------|---------5-5-5-5|
E|----------------|----------------|----------------|---------3-3-3-3|

E|----------------|----------------|----------------|----------------|
B|----------------|----------------|----------------|----------------|
G|-5-5-5-5-5-5-5-5|-5-5-5-5-5-5-5-5|----------------|----------------|
D|-5-5-5-5-5-5-5-5|-5-5-5-5-5-5-5-5|-3-3-3-3-3-3-3-3|-5-5-5-5-5-5-5-5|
A|-3-3-3-3-3-3-3-3|-3-3-3-3-3-3-3-3|-3-3-3-3-3-3-3-3|-5-5-5-5-5-5-5-5|
E|----------------|----------------|-1-1-1-1-1-1-1-1|-3-3-3-3-3-3-3-3|

E|----------------|----------------|----------------|----------------|
B|----------------|----------------|----------------|----------------|
G|-5-5-5-5-5-5-5-5|-5-5-5-5-5-5-5-5|----------------|----------------|
D|-5-5-5-5-5-5-5-5|-5-5-5-5-5-5-5-5|-3-3-3-3-3-3-3-3|-5-5-5-5-5-5-5-5|
A|-3-3-3-3-3-3-3-3|-3-3-3-3-3-3-3-3|-3-3-3-3-3-3-3-3|-5-5-5-5-5-5-5-5|
E|----------------|----------------|-1-1-1-1-1-1-1-1|-3-3-3-3-3-3-3-3|

Interlude--/--Outro

E|----------------|----------------|----------------|----------------|
B|----------------|----------------|----------------|----------------|
G|-5-5-5----3-3---|----------3-3---|-5-5-5----3-3---|----------3-3---|
D|-5-5-5----3-3---|-6-6-6----3-3---|-5-5-5----3-3---|-6-6-6----3-3---|
A|-3-3-3----1-1---|-6-6-6----1-1---|-3-3-3----1-1---|-6-6-6----1-1---|
E|----------------|-4-4-4----------|----------------|-4-4-4----------|

E|----------------|----------------|----------------|----------------|
B|----------------|----------------|----------------|----------------|
G|-5-5-5----3-3---|----------------|-5-5-5-5-3-3-3-3|----------------|
D|-5-5-5----3-3---|-6-6-6----------|-5-5-5-5-3-3-3-3|-6-6-6-6-5-5-5-5|
A|-3-3-3----1-1---|-6-6-6----------|-3-3-3-3-1-1-1-1|-6-6-6-6-5-5-5-5|
E|----------------|-4-4-4----------|----------------|-4-4-4-4-3-3-3-3|

E|----------------|----------------|----------------|----------------|
B|----------------|----------------|----------------|----------------|
G|-5-5-5-5-3-3-3-3|----------------|----------------|----------------|
D|-5-5-5-5-3-3-3-3|-6-6-6-6-5-5-5-3|----------------|----------------|
A|-3-3-3-3-1-1-1-1|-6-6-6-6-5-5-5-3|----------------|----------------|
E|----------------|-4-4-4-4-3-3-3-1|----------------|----------------|

E|----------------|----------------|----------------|----------------|
B|----------------|----------------|----------------|----------------|
G|-5-5-5-5-5-5-5-5|-2-2-2-2-2-2-2-2|----------------|-2-2-2-2-2-2-2-2|
D|-5-5-5-5-5-5-5-5|-2-2-2-2-2-2-2-2|-3-3-3-3-3-3-3-3|-2-2-2-2-2-2-2-2|
A|-3-3-3-3-3-3-3-3|-0-0-0-0-0-0-0-0|-3-3-3-3-3-3-3-3|-0-0-0-0-0-0-0-0|
E|----------------|----------------|-1-1-1-1-1-1-1-1|----------------|

E|----------------|----------------|----------------|----------------|
B|----------------|----------------|----------------|----------------|
G|-9-9-9101010-9-9|-9-9-9-9-9-9----|----------------|----------------|
D|-9-9-9101010-9-9|-9-9-9-9-9-9-7-7|-7-7-7-7-7-7-5-5|-5-5-5-5-5-5-5-5|
A|-7-7-7-8-8-8-7-7|-7-7-7-7-7-7-7-7|-7-7-7-7-7-7-5-5|-5-5-5-5-5-5-5-5|
E|----------------|-------------5-5|-5-5-5-5-5-5-3-3|-3-3-3-3-3-3-3-3|
   * * * * * * * *  * * * * * * * *  * * * * * * * *  * * * * * * * *

E|----------------|----------------|----------------|----------------|
B|----------------|----------------|----------------|----------------|
G|-5-5-5-5-3-3-3-3|---------------5|----------------|----------------|
D|-5-5-5-5-3-3-3-3|-6-6-6-6-5-5-5-5|----------------|----------------|
A|-3-3-3-3-1-1-1-1|-6-6-6-6-5-5-5-3|----------------|----------------|
E|----------------|-4-4-4-4-3-3-3--|----------------|----------------|

E|----------------|----------------|----------------|----------------|
B|----------------|----------------|----------------|----------------|
G|----------------|----------------|-5-5-5-5-5-5-5-5|-5-5-5-5-5-5-5-5|
D|---------------3|-----------5-5-5|-5-5-5-5-5-5-5-5|-5-5-5-5-5-5-5-5|
A|---------------3|-----------5-5-5|-3-3-3-3-3-3-3-3|-3-3-3-3-3-3-3-3|
E|---------------1|-----------3-3-3|----------------|----------------|

E|----------------|----------------|----------------|----------------|
B|----------------|----------------|----------------|----------------|
G|----------------|----------------|-5-5-5-5-3-3-3-3|----------------|
D|-3-3-3-3-3-3-3-3|-5-5-5-5-5-5-5-5|-5-5-5-5-3-3-3-3|-6-6-6-6-5-5-5-5|
A|-3-3-3-3-3-3-3-3|-5-5-5-5-5-5-5-5|-3-3-3-3-1-1-1-1|-6-6-6-6-5-5-5-5|
E|-1-1-1-1-1-1-1-1|-3-3-3-3-3-3-3-3|----------------|-4-4-4-4-3-3-3-3|

E|----------------|----------------|
B|----------------|----------------|
G|-5-5-5-5-3-3-3-3|----------------|
D|-5-5-5-5-3-3-3-3|-6-6-6-6--------|
A|-3-3-3-3-1-1-1-1|-6-6-6-6--------|
E|----------------|-4-4-4-4--------|

Jon Devoto (Lead)

-->Try playing some higher-pitched octaves throughout the verse and pre-chorus.  It 
like he plays the verse with distant & wah and the pre-chorus is played with just wah.  For 
chorus, I think he plays the same as Shawn.
Related for Borderline Creep tab