Song name
# A B C D E F G H I J K L M N O P Q R S T U V W X Y Z

Matches - Sunburn Vs The Rhinovirus tab

Help us improve GuitareTab! Take a short survey!
Intro:
Shawn                                 Jon
e|----------------------------------------------------------------------|
B|-----------------------------------------10---------------------------|
G|---2----------------------------------11----11-9-11-9-----------------|
D|-4---4-2-4-2------------------------------------------9-11-7----------|
B|-------------2-4-0-------------------------------------------9x-------|
E|-------------------2x-------------------------------------------------|

e|---------------------------------------------------------7-9-7-9------|
B|----------------------------------------------------------------------|
G|--------------------------------------------------66-4----------------|
D|-77-6-------------77-6------------77-6-----------------7--------------|
B|---------2-4-2-4---------2-4-2-4---------2-4-2-4----------------------|
E|------2----------------2---------------2------------------------------|

Verse (bass only)
G|----------------------------------------------------------------------|
D|-77-6--------------------4x's-----------------------------------------|
B|--------2-4-2-4-------------------------------------------------------|
E|------2---------------------------------------------------------------|

Intro:
Shawn                                 Jon
e|----------------------------------------------------------------------|
B|-----------------------------------------10---------------------------|
G|---2----------------------------------11----11-9-11-9-----------------|
D|-4---4-2-4-2------------------------------------------9-11-7----------|
B|-------------2-4-0-------------------------------------------9x-------|
E|-------------------2x-------------------------------------------------|

e|---------------------------------------------------------7-9-7-9------|
B|----------------------------------------------------------------------|
G|--------------------------------------------------66-4----------------|
D|-77-6-------------77-6------------77-6-----------------7--------------|
B|---------2-4-2-4---------2-4-2-4---------2-4-2-4----------------------|
E|------2----------------2---------------2------------------------------|

"My eyes are dry"
Shawn                         John
e|----------------------------------------------------------------------|
B|-2~---------------------------------10----12p10---10------------------|
G|----4~------------------------11-11----11-------11---7-7-9-7-9/11-----|2x's through
D|----------------------------------------------------------------------|
B|----------------------------------------------------------------------|
E|----------------------------------------------------------------------|

Chorus/prechorus
e|----------------------------------------------------------------------|
B|----------------------------------------------------------------------|
G|----------------------------------------------------------------------|
D|-4-6-6/-7-7-----------------------------------------------------------|
B|-4-6-6/-5-5-----------------------------------------------------------|
E|-2-4-4/-5-5xxx--------------------------------------------------------|

"I'll blow my brains out..."
e|----------------------------------------------------------------------|
B|-3~-------------------------------------------------------------------|
G|-2~-------------------------------------------------------------------|
D|-x--------------------------------------------------------------------|
B|-2~-------------------------------------------------------------------|
E|----222---------------------------------------------------------------|
      ***

Breakdown
e|----------------------------------------------------------------------|
B|-----3----3----3-3----3-3----3-3----3-3-------------------------------|
G|-------------------------------------------1-1---1-1------------------|
D|-0-0---0-0------------------------------------------------------------|
B|--------------2-2----2-2--0-0----0-0----------------------------------|
E|----------------------------------------2-2----2-2--------------------|

"In spite of sunburn"
e|----------------------------------------------------------------------|
B|-3-3-3---5-5-5--10-10-10-12-12-12-------------------------------------|
G|-2-2-2---4-4-4--9--9--9--11-11-11-------------------------------------|
D|----------------------------------------------------------------------|
B|-2-2-2---4-4-4--9--9--9--11-11-11-------------------------------------|
E|----------------------------------------------------------------------|

Just repeat everything as need be. Enjoy
Related for Sunburn Vs The Rhinovirus tab