Song name
# A B C D E F G H I J K L M N O P Q R S T U V W X Y Z

Matches - Barbers Unhappiness tab

All of the chords are correct im about 90% on the breakdown bit
Refer to the song for rythem and timing
-------------------------------------------------------------------------------
			     The Barbers Unhappiness - The Matches
-------------------------------------------------------------------------------
Tabbed by:Schlozz
Email: Schlozz@googlemail.com

Tuning:Drop D

Chorus
Let Ring
"Cold Colas to coexist..."
e|---------------------------------------------------------------------------|
B|---------------------------------------------------------------------------|
G|---------------------------------------------------------------------------|
D|0---------------0---------------5----------------0-------------------------|
A|0---------------0---------------5----------------0-------------------------|
D|0---------------0---------------5----------------0-------------------------|

Chorus Part 2
"still i trace your gaze..."
e|---------------------------------------------------------------------------|
B|---------------------------------------------------------------------------|
G|---------------------------------------------------------------------------|
D|h5-------------/2--------------\5---------------/7------------p0-----------|
A|h5-------------/2--------------\5---------------/7------------p0-----------|
D|h5-------------/2--------------\5---------------/7------------p0-----------|

Interlude
"Every Morning..."
e|----------------------------------------------------------------------------------|
B|----------------------------------------------------------------------------------|
G|----------------------------------------------------------------------------------|
D|2---------------2---------------4----------------2--------------------------------|
A|2---------------2---------------4----------------2--------------------------------|
D|2---------------2---------------4----------------2--------------------------------|

Interlude Part 2
"grammar, middle, and Lake High"
e|---------------------------------------------------------------------------|
B|---------------------------------------------------------------------------|
G|---------------------------------------------------------------------------|
D|2---------------2---------------4----------------7-------------------------|
A|2---------------2---------------4----------------7-------------------------|
D|2---------------2---------------4----------------7-------------------------|

Breakdown Lead Guitar
e|---------------------------------------------------------------------------|
B|-------------12-12-------------------------12-14-14-14-14-14-14-12-11bbbbbb|
G|9-9-9-9-9-9--------13-13-13-13-13-13-13-13---------------------------------|
D|---------------------------------------------------------------------------|
A|---------------------------------------------------------------------------|
D|---------------------------------------------------------------------------|

e|0--------------------------------------------------------------------------|
B|--11-9---------------------------------------------------------------------|
G|---------------------------------------------------------------------------|
D|---------------------------------------------------------------------------|
A|---------------------------------------------------------------------------|
D|---------------------------------------------------------------------------|

Breakdown Rythem (listen to song for rythem)
e|---------------------------------------------------------------------------|
B|---------------------------------------------------------------------------|
G|---------------------------------------------------------------------------|
D|2-----------6---------11------9-8------------------------------------------|
A|2-----------6---------11------9-8------------------------------------------|
D|2-----------6---------11------9-8------------------------------------------|

Chorus x2
Chorus Part 2
Chorus x2
Chorus Part 2
Interlude
Interlude Part 2
Breakdown x6
Chorus x2

| /  slide up
| \  slide down
| h  hammer-on
| p  pull-off
| ~  vibrato
| +  harmonic
| x  Mute note
===============================================================================
Tap to rate this tab
# A B C D E F G H I J K L M N O P Q R S T U V W X Y Z